PrimaNota.ru - самый крупный в мире бесплатный архив песенных текстов, аккордов, табулатур и нот


John Frusciante - Introsabam - таба, видео

Регистрация Запомнить меня
Войти через:  Facebook Google Twitter Vk Yandex Mail.ru

John Frusciante - Introsabam - таба, видео

Печатать
Просмотров: 83
-----------------------------------------------------------------
INTRO/SABAM - John Frusciante
-----------------------------------------------------------------
Tabbed by:Frazer H
Email:frazer.hughes@gmail.com

Tuning:standard

The guitar part on this song kicks in at 0:23seconds for whatever
reason i started tabbing at 0:39 but its more or less repetative
anyway. there are some bars that are overdubbed with another guitar
playing high harmonies, i tabbed those too in some random places,
you can do it anywhere in the song just play whats here up an octave
(or if you have a loop pedal you can have some fun with it).
Like Raitug and the solo on Guitar, this is either in E major or
Bmajor (frusciante seems to avoid playing a A or A# in any clear
way that i can tell).

  [0:39 seconds]
e|------------------------------------------------------------------|
B|------------------------------------------------------------------|
G|----8---6---4-----------------------------------------------------|
D|---/-\-/-\-/-\-/6---------4s/6------------------------------------|
A|--/---4---2---4-------2-4-----------------------------------------|
E|-0----------------------------------------------------------------|

  [0:43 seconds]
e|----------------------------12-----------------------------------------|
B|-----9----------------/12\-/--\-/12\-----------------------------------|
G|----/-\---11---9---8------9----9---------------------------------------|
D|---/---\-/--\-/-\-/----------------------------------------------------|
A|--/-----9----7---9-----------------------------------------------------|
E|-9---------------------------------------------------------------------|

  [0:47 seconds]
e|-------------------------------------------------------------------|
B|-4------------------------------------9----------------------------|
G|--\---6---4---(3)s/6--4---4-/6-------/-\---11(hold)-/13------------|
D|---\-/-\-/-\6/---------\-/----------/---\-/------------------------|
A|----4---2---------------4----------/-----9-------------------------|
E|----------------------------------9--------------------------------|

 [0:52 seconds] ---> Overdub/Harmony Part for  [0:52-----------------| seconds]
e|----------------|---12----9----------------------------------------|
B|----------------|--/--\--/-\---12\-9-------------------------------|
G|---11---9---8---|-9----11---\-/------------------------------------|
D|--/--\-/-\-/-\6-|------------9-------------------------------------|
A|-9----7---6-----|--------------------------------------------------|
E|----------------|--------------------------------------------------|

 [0:55 seconds]  --->  --->  Overdub/Harmony Part for [0:55---------| sec.]
e|----------------------------|-------------------------------------|
B|----------------------------|----16h17--14------------------------|
G|--8h9--6---6---4-----4s/6---|---/------------18-16-----16s/18-----|
D|--/-------/-\-/--4-6--------|--/------------/-\/--16-18-----------|
A|-/-------4---2------------4-|-16-----------16-14------------------|
E|-9--------------------------|-------------------------------------|

The guitar parts on this song just cycle through these kind of
structures, repeat, play around with it, etc.
Добавлено: 08.09.2013
Другие материалы по этой песне:
  • Аккорды и текст

Страница создана 08.09.2013
http://primanota.ru/john-frusciante/introsabam-chords.htm
Привет, Гость.
Предлагаем пройти революционный курс по гитаре.
Подарок от PrimaNota.Ru, забирай!