PrimaNota.ru - самый крупный в мире бесплатный архив песенных текстов, аккордов, табулатур и нот


Johann Kaspar Mertz - Nocturne In C - Op 4 No 2 - таба, видео

Регистрация Запомнить меня
Войти через:  Facebook Google Twitter Vk Yandex Mail.ru

Johann Kaspar Mertz - Nocturne In C - Op 4 No 2 - таба, видео

Печатать
Просмотров: 159
E||--------------0-----||------------------------------0-------0-|
B||------------------3-||---3--------1-----------------1---------|
G||--------------------||*--------0-----0-----------0-----0------|
D||--------------------||*-----2-----------2-----2-----------2---|
A||--------------------||---3-----------------3------------------|
E||--------------------||----------------------------------------|


 F7Madd13                   D       D7   Gadd11   G        Gsus2    G       G7
-0------------------------------------|--------------------5--------3-------1-|
----------3-----------------3-------1-|--1--------0-----------------0---------|
-------2-----2-----------2--------2---|--------0-----0-----------0-----0------|
----3-----------3-----3--------0------|-----0-----------0-----0-----------0---|
--------------------------------------|---------------------------------------|
-1-----------------1--------2---------|--3-----------------3------------------|


  Cadd11   C                        Cadd9          C        A7sus4   A7
--1--------0-----------------0---------|--------------------------------------|
-----------1-----------------1-------3-|--3--------1--------3--------2--------|
--------0-----0-----------0-----0------|--------0-----0-----------0-----0-----|
-----2-----------2-----2-----------2---|-----2-----------2-----2-----------2--|
--3-----------------3------------------|--3-----------------0-----------------|
---------------------------------------|--------------------------------------|


  Aadd11   Dm                F          G6       C        G7sus4   G7
--0--------------------------1--0-----|--------------------------------------|
--2--------3--------------3--------3--|--3--------1--------1--------0--------|
-----2--0--2-----------2-----2--------|--------0-----0-----------0-----0-----|
--0--------3--2--1--0-----------------|-----2-----------2-----3-----------3--|
--------------------------------------|--------------------------------------|
-----------------------------1--------|--3-----------------3-----------------|

1.)                                       2.)
 C                                  Cadd9  C                              Cadd9
----------------------------0----------||--------------------------------------|
-1--------1-----------------1-------3--||-1--------1-----------------1-------3-|
-------0-----0-----------0-----0------*||-------0-----0-----------0-----0------|
----2-----------2-----2-----------2---*||----2-----------2-----2-----------2---|
-3-----------------3-------------------||-3-----------------3------------------|
---------------------------------------||--------------------------------------|


    E                          F-Am7-F     E                          F-Am7-F
|---0--------0-----------------1--3--1--|--0--------0-----------------1--3--1--|
|---------0--------0--------1--1--1--1--|--------0--------0--------1--1--1--1--|
|*-----1--------1--------2-----2--2--2--|-----1--------1--------2-----2--2--2--|
|*-----------2--------------------------|-----------2--------------------------|
|---------------------------------------|--------------------------------------|
|---0-----------------0-----------------|--0-----------------0-----------------|


  E  E7M            E  E7M   F           E                 Em       G7
--0-----0--1--3--1--0-----0--1--3--1--|--0--------0--------0--------1--------|
--0--4-----1--------0--4-----1--------|--0-----0--------0--------0--------0--|
--1--------2--------1--------2--------|--1--1--------1--------0--------0-----|
--------------------------------------|--------------------2--------0--------|
--------------------------------------|--------------------------------------|
--0--------0--------0--------0--------|--0-----------------------------------|


  Cadd9    C        A7sus4   A7          Aadd11   Dm                F
--------------------------------------|--0--------------------------1--0-----|
--3--------1--------3--------2--------|--2--------3--------------3--------3--|
--------0-----0-----------0-----0-----|-----2--0--2-----------2-----2--------|
-----2-----------2-----2-----------2--|--0--------3--2--1--0-----------------|
--3-----------------0-----------------|--------------------------------------|
--------------------------------------|-----------------------------1--------|

                                       1.)
 G6                Csus4                C                                Cadd9
-------------------------------------|---------------------------------------||
-3--------1--------1--------0--------|-1--------1-----------------1-------3--||
-------0-----0-----------0-----0-----|-------0-----0-----------0-----0------*||
----2-----------2-----3-----------3--|----2-----------2-----2-----------2---*||
-------------------------------------|-3-----------------3-------------------||
-3-----------------3-----------------|---------------------------------------||

 2.)
  C                                      G7/C#             Gsus2    G
-----0--0--0--0--0--0--0--0--0--0--0--|-----1--1-----1--1--5--------3--------|
--1--1--1--1--1--1--1--1--1--1--1--1--|-----0--0-----0--0-----0--0-----0--0--|
-----0--0--0--0--0--0--0--0--0--0--0--|-----0--0-----0--0-----0--0-----0--0--|
--2-----------------2-----------------|-----------0-----------------0--------|
--3--------------------------3--------|--4-----------------------------------|
-----------2-----3--------------------|--------------------3-----------------|


  C                                      G7/C#             Gsus2    G
-----0--0--0--0--0--0--0--0--0--0--0--|-----1--1-----1--1--5--------3--------|
-----1--1--1--1--1--1--1--1--1--1--1--|-----0--0-----0--0-----0--0-----0--0--|
-----0--0--0--0--0--0--0--0--0--0--0--|-----0--0-----0--0-----0--0-----0--0--|
--------------------2-----------------|-----------0-----------------0--------|
--3--------------------------3--------|--4-----------------------------------|
-----------2-----3--------------------|--------------------3-----------------|


  C                 G7/E     G7          C                 G7/E     G7
--0--0--0--0--0--0--1--1--1--1--1--1--|--0--0--0--0--0--0--1--1--1--1--1--1--|
--1--1--1--1--1--1--0--0--0--0--0--0--|--1--1--1--1--1--1--0--0--0--0--0--0--|
--0--0--0--0--0--0--0--0--0--0--0--0--|--0--0--0--0--0--0--0--0--0--0--0--0--|
--------------------2--------0--------|--------------------2--------0--------|
--3-----------------------------------|--3-----------------------------------|
-----------2-----3--------------------|-----------2-----3--------------------|


  C
--0--0--0--0--0--0--0--0--0--0--0--0--|--0----------------||
--1--1--1--1--1--1--1--1--1--1--1--1--|--1----------------||
--0--0--0--0--0--0--0--0--0--0--0--0--|--0----------------||
--------------------------------------|-------------------||
--3-----------------3-----------------|--3----------------||
-----------3-----------------3--------|-------------------||


4/4 (1/8 Triolen)
Добавлено: 10.05.2012
Другие материалы по этой песне:
  • Аккорды и текст

Страница создана 10.05.2012
http://primanota.ru/johann-kaspar-mertz/nocturne-in-c-op-4-no-2-chords.htm
Привет, Гость.
Предлагаем пройти революционный курс по гитаре.
Подарок от PrimaNota.Ru, забирай!