PrimaNota.ru - самый крупный в мире бесплатный архив песенных текстов, аккордов, табулатур и нот


Johann Kaspar Mertz - Marcia In G - таба, видео

Регистрация Запомнить меня
Войти через:  Facebook Google Twitter Vk Yandex Mail.ru

Johann Kaspar Mertz - Marcia In G - таба, видео

Печатать
Просмотров: 118
Moderato

E||-------------------------|--3----3---3-3----------|-------------1----0-----|
B||---3----3---3-3----2--3--|--0----0-----0----0h-1--|--3----2h-3--0--------0-|
G||*--4----4-----4----------|--0----0-----0----------|--0----------1----------|
D||*--5----5-----5----------|------------------------|------------------------|
A||-------------------------|------------------------|--2---------------------|
E||-------------------------|--3----3-----3----------|-------------0----------|

----------------------|--0----0---0-0-------0--|--5----5---5-5--3--2--0--|
--3----------1--------|--1----1-----1----4-----|-------------------------|
-------------2--------|--2----2-----2----------|--5----5-----5-----------|
----------------------|------------------------|-------------------------|
-------0---0-0--------|------------------------|--0----0-----0-----------|
----------------------|------------------------|-------------------------|

--2h-0--------------------------------|-------3---3-3---------||
--------3--5h-3-----3h-1--0--1h-0-----|-------0-----0---------||
-----------------5-----------------2--|--0----0-----0--------*||
--0-----------------0-----------------|----------------------*||
--------------------------------------|-----------------------||
--------------------------------------|--3----3-----3---------||
                                                       
---------------------------|----------0--3--2----0----|
---0----0--0--0--1----0----|--0----0--------0----0----|
*-------2--------2----2----|-------0--------0----0----|
*--------------------------|--------------------------|
---2-----------------------|--------------------------|
---------------------------|--0-----------------------|
                                                      
--------------------------|----------0--3--2----0----|
--0----0--0--0--1----0----|--0----0--------0----0----|
-------2--------2----2----|-------0--------0----0----|
--------------------------|--------------------------|
--2-----------------------|--------------------------|
--------------------------|--0-----------------------|

--------------------------|-------3----3----3----|--3-----------2--0--------|
--3----3--3--3--2----1----|--0----0----1---------|--0--0--1--3--------1-----|
--2-----------------------|--0--------------3----|-----------------------2--|
--4----0--------2----4----|-------3----2---------|--0-----------0-----------|
--------------------------|-----------------4----|--------------------------|
--------------------------|----------------------|--------------------------|
                                                                         
-------3--------------||--0-------0--1----------|-----------------------|
-------0--------------||-------3-------------0--|--3----1---------0--1--|
--0----0----0--------*||------------------2-----|-------0---------0-----|
---------------------*||-------2----------0-----|-------2---------2-----|
----------------------||--3---------------------|--3---------3----------|
--3----3----3---------||-------------3----------|-----------------------|
                                                                         
--0-------------------|-------------0----------|--0-------0--1----------|
-------3---------0----|----------1----------1--|-------3-------------0--|
-------0----2----0----|--0----------0----0-----|-------0----------2-----|
-------3----3----3----|-------2-----2----2-----|-------2----------0-----|
----------------------|--3---------------------|--3---------------------|
--3-------------------|------------------------|-------------3----------|

-----------------------|----------------------|--0----0--------1----|
--3----1---------0--1--|-------0----1----3----|-------0--------0----|
-------0---------0-----|--2----1----2----2----|--1----1--------0----|
-------2---------2-----|--3----3----3---------|-------2--------0----|
--3---------3----------|----------------------|---------------------|
-----------------------|-----------------1----|--0------------------|
                                                                        
--0-------0--1----------|-----------------------|--0-------------------|
-------3-------------0--|--3----1---------0--1--|-------3---------0----|
------------------2-----|-------0---------0-----|-------0----2----0----|
-------2----------0-----|-------2---------2-----|-------3----3----3----|
--3---------------------|--3---------3----------|----------------------|
-------------3----------|-----------------------|--3-------------------|
                                                                          
-------------0----------|--0-------0--1----------|-----------------------|
----------1----------1--|-------3-------------0--|--3----1---------0--1--|
--0----------0----0-----|-------0----------2-----|-------0---------0-----|
-------2-----2----2-----|-------2----------0-----|-------2---------2-----|
--3---------------------|--3---------------------|--3---------3----------|
------------------------|-------------3----------|-----------------------|
                                                                    
----------------------|--0------------5---3-|--3---------3----3----|
-------0----1----3----|---------------------|------------0----0----|
--2----1----2----2----|--1------------------|-------0----0----0----|
--3----3----3---------|---------------------|-------0----0----0----|
----------------------|---------------------|----------------------|
-----------------1----|--0------------------|--3-------------------|
                                                                       
------------0----1---0-|--0---------0---------|-----------------------|
--4--------------------|------------0----3----|--1---------1----0--1--|
------------0----------|-------1----1----1----|--2---------2----------|
--4--------------------|-------2----2----2----|-----------------------|
-------3----3----------|----------------------|-------0----0----------|
-----------------------|--0-------------------|-----------------------|
                                                                             
------------3----1----|--0-------------------|-----------0--------3---------|
--3---------0---------|-------3----1---------|--------1-----1----------0----|
-------0----0----0----|--0----1----2----2----|-----0-----------0-------0----|
----------------------|----------------------|-------------------------3----|
--2--------------2----|--3---------0---------|------------------------------|
------------3---------|-------0---------1----|--3----------------------3----|
                                                                        
------------------5---3-|--3---------3----3----|------------0----1---0-|
--1----1---1-1----------|------------0----0----|--4--------------------|
--0----0-----0----------|-------0----0----0----|------------0----------|
--2----2-----2----------|-------0----0----0----|--4--------------------|
--3----3-----3----------|----------------------|-------3----3----------|
------------------------|--3-------------------|-----------------------|
                                                                      
--0---------0---------|-----------------------|------------3----1----|
------------0----3----|--1---------1----0--1--|--3---------0---------|
-------1----1----1----|--2---------2----------|-------0----0----0----|
-------2----2----2----|-----------------------|----------------------|
----------------------|-------0----0----------|--2--------------2----|
--0-------------------|-----------------------|------------3---------|
                                                                             
--0-------------------|-----------0--------3---------|----------------------|
-------3----1---------|--------1-----1----------0----|--1----1---1-1--------|
--0----1----2----2----|-----0-----------0-------0----|--0----0-----0--------|
----------------------|-------------------------3----|--2----2-----2--------|
--3---------0---------|------------------------------|--3----3-----3--------|
-------0---------1----|--3----------------------3----|----------------------|
                                                                           
------------------------|--3----3---3-3----------|-------------1----0-----|
--3----3---3-3----2--3--|--0----0-----0----0h-1--|--3----2h-3--0--------0-|
--4----4-----4----------|--0----0-----0----------|--0----------1----------|
--5----5-----5----------|------------------------|------------------------|
------------------------|------------------------|--2---------------------|
------------------------|--3----3-----3----------|-------------0----------|
                                                                          
----------------------|--0----0---0-0-------0--|--5----5---5-5--3--2--0--|
--3----------1--------|--1----1-----1----4-----|-------------------------|
-------------2--------|--2----2-----2----------|--5----5-----5-----------|
----------------------|------------------------|-------------------------|
-------0---0-0--------|------------------------|--0----0-----0-----------|
----------------------|------------------------|-------------------------|
                                                              
--2h-0--------------------------------|-------3---3-3--------|
--------3--5h-3-----3h-1--0--1h-0-----|-------0-----0--------|
-----------------5-----------------2--|--0----0-----0--------|
--0-----------------0-----------------|----------------------|
--------------------------------------|----------------------|
--------------------------------------|--3----3-----3--------|
                                                      
--------------------------|----------0--3--2----0----|
--0----0--0--0--1----0----|--0----0--------0----0----|
-------2--------2----2----|-------0--------0----0----|
--------------------------|--------------------------|
--2-----------------------|--------------------------|
--------------------------|--0-----------------------|
                                                      
--------------------------|----------0--3--2----0----|
--0----0--0--0--1----0----|--0----0--------0----0----|
-------2--------2----2----|-------0--------0----0----|
--------------------------|--------------------------|
--2-----------------------|--------------------------|
--------------------------|--0-----------------------|
                                                                             
--------------------------|-------3----3----3----|--3-----------2--0--------|
--3----3--3--3--2----1----|--0----0----1---------|--0--0--1--3--------1-----|
--2-----------------------|--0--------------3----|-----------------------2--|
--4----0--------2----4----|-------3----2---------|--0-----------0-----------|
--------------------------|-----------------4----|--------------------------|
--------------------------|----------------------|--------------------------|
                       
-------3-------------||
-------0-------------||
--0----0----0--------||
---------------------||
---------------------||
--3----3----3--------||
Добавлено: 23.05.2012
Вам также может быть интересно:
Другие материалы по этой песне:
  • Аккорды и текст

Страница создана 23.05.2012
http://primanota.ru/johann-kaspar-mertz/marcia-in-g-chords.htm
Привет, Гость.
Предлагаем пройти революционный курс по гитаре.
Подарок от PrimaNota.Ru, забирай!