PrimaNota.ru - самый крупный в мире бесплатный архив песенных текстов, аккордов, табулатур и нот


Johann Kaspar Mertz - Landler - таба, видео

Регистрация Запомнить меня
Войти через:  Facebook Google Twitter Vk Yandex Mail.ru

Johann Kaspar Mertz - Landler - таба, видео

Печатать
Просмотров: 173
Уроки эстрадного вокала в Санкт-Петербурге
Allegretto

E||--------2-----------|--------1-----------|--------0-----------|
B||--------------------|--------------------|--------------------|
G||-----2-----2-----2--|-----1-----1-----1--|-----0-----0-----0--|
D||--0-----------0-----|--0-----------0-----|--------------------|
A||--------------------|--------------------|--4-----------1-----|
E||--------------------|--------------------|--------------------|

--------------------|--------------------|-----------0--------|
--------3-----------|-----------4--------|--------0-----------|
--------------------|--------5-----------|-----0-----------0--|
-----4-----4-----4--|-----4-----------4--|--------------------|
--2-----------2-----|--0-----------0-----|--------------------|
--------------------|--------------------|--3-----------0-----|

-----------5-----3--|-----2--------------|--------2-----------|
--------2-----------|--------3-----------|--------------------|
-----0--------------|-----------4--2-----|-----2-----2-----2--|
--------------------|--0-----------------|--0-----------0-----|
--0-----------0-----|--------------------|--------------------|
--------------------|--------------------|--------------------|

--------1-----------|--------0-----------|--------------------|
--------------------|--------------------|--------3-----------|
-----1-----1-----1--|-----0-----0-----0--|--------------------|
--0-----------0-----|--------------------|-----4-----4-----4--|
--------------------|--4-----------1-----|--2-----------2-----|
--------------------|--------------------|--------------------|

-----------0--------|--------------------|--------------------|
--------0-----------|--------3-----------|--------3--------2--|
-----0-----------0--|--------------------|--------------------|
--------------------|-----4-----4-----3--|-----2-----2-----2--|
--------------------|--0-----------0-----|--0-----------0-----|
--3-----------0-----|--------------------|--------------------|

-------10--------||---0h2p0-----0-----0--|-----0-----0-----0--|
-------7---------||----------2-----------|--------------------|
-------7---------||*---------------2-----|--1-----2-----3-----|
--0--------------||*---------------------|--------------------|
-----------------||---0------------------|--------------------|
-----------------||----------------------|--0-----------------|

-----0-----0-----0--|-----0-----0-----0--|-0h2p0-----0-----0--|
--0-----2-----3-----|--2-----0-----------|--------2-----------|
--------------------|--------------2-----|--------------2-----|
--------------------|--------------------|--------------------|
--------------------|--0-----------------|-0------------------|
--0-----------------|--------------------|--------------------|

-----0-----0-----0--|-----0-----0-----0--|-----0-----0-----0--|
--------------------|--------------------|--------------------|
--1-----------------|--------------------|--------------------|
--------4-----2-----|--0-----------------|--------------------|
--------------------|--------4-----2-----|--4-----2-----0-----|
--0-----------------|--------------------|--------------------|

--------2-----------|--------1-----------|--------0-----------|
--------------------|--------------------|--------------------|
-----2-----2-----2--|-----1-----1-----1--|-----0-----0-----0--|
--0-----------0-----|--0-----------0-----|--------------------|
--------------------|--------------------|--4-----------1-----|
--------------------|--------------------|--------------------|

--------------------|--------------------|-----------0--------|
--------3-----------|-----------4--------|--------0-----------|
--------------------|--------5-----------|-----0-----------0--|
-----4-----4-----4--|-----4-----------4--|--------------------|
--2-----------2-----|--0-----------0-----|--------------------|
--------------------|--------------------|--3-----------0-----|

-----------5-----3--|-----2--------------|--------2-----------|
--------2-----------|--------3-----------|--------------------|
-----0--------------|-----------4--2-----|-----2-----2-----2--|
--------------------|--0-----------------|--0-----------0-----|
--0-----------0-----|--------------------|--------------------|
--------------------|--------------------|--------------------|

--------1-----------|--------0-----------|--------------------|
--------------------|--------------------|--------3-----------|
-----1-----1-----1--|-----0-----0-----0--|--------------------|
--0-----------0-----|--------------------|-----4-----4-----4--|
--------------------|--4-----------1-----|--2-----------2-----|
--------------------|--------------------|--------------------|

-----------0--------|--------------------|--------------------|
--------0-----------|--------3-----------|--------3--------2--|
-----0-----------0--|--------------------|--------------------|
--------------------|-----4-----4-----3--|-----2-----2-----2--|
--------------------|--0-----------0-----|--0-----------0-----|
--3-----------0-----|--------------------|--------------------|

-------10----------||
-------7-----------||
-------7----------*||
--0---------------*||
-------------------||
-------------------||
Добавлено: 24.06.2012
Другие материалы по этой песне:
  • Аккорды и текст

Страница создана 24.06.2012
http://primanota.ru/johann-kaspar-mertz/landler-chords.htm
Привет, Гость.
Предлагаем пройти революционный курс по гитаре.
Подарок от PrimaNota.Ru, забирай!