PrimaNota.ru - самый крупный в мире бесплатный архив песенных текстов, аккордов, табулатур и нот


Johann Kaspar Mertz - Etude In G - Allegretto - таба, видео

Регистрация Запомнить меня
Войти через:  Facebook Google Twitter Vk Yandex Mail.ru

Johann Kaspar Mertz - Etude In G - Allegretto - таба, видео

Печатать
Просмотров: 311
Key Signature: G major

Tempo: Allegretto

Publisher's note:
Play apoyando (rest stroke) in the high notes of intervals. Play it without
overweening accent, with a little and quick touching of a lower string.

==================================================================
6/8
==================================================================

  ^     ^       ^     ^
  |.    |.      |.    |.      a     a       a     a
E-------------|-------3====-|-3-----2-----|-2-----0-----|
B-0====-1====-|-0====-----0-|-----0-----0-|-----1-----1-|
G-----0-----0-|-----0---0---|---0-----0---|---0-----0---|
D---0-----2---|---0---------|-2-----0-----|-------------|
A-------------|-------------|-------------|-3-----------|
E-3-----3-----|-3-----------|-------------|-------------|
  | | | | | |   | | | | | |   p i m p i m   p i m a i m
  ----- -----   ----- -----   4     2       2   1
  3     1 2           4       1             3   
[mf]
                                          
E-------------|-------------|-3-----5-----|
B-3-----1-----|-1-----0-----|-----0-----2-|
G-----0-----2-|-----2-----0-|---0-----0---|
D---0-----2---|---0-----0---|-2-----------|
A-2-----0-----|-------------|-------0-----|
E-------------|-2-----3-----|-------------|
  4     1 2 3   1             4     4   1
  2             2     3       2               

                            ______________ ______________
                            |1.           ||2.     __
                            |   rit.      || |.    |  ,
                           E--------------||------------
                           B-3-----3------||-3====(3)---
                           G-----2---5-2-*||-----2------
                           D-0-4---}--'/-*||-0=4---0====
                           A--------------||------------
                           E--------------||------------
                             2 3 1 2 4 1     |h| | |
      ^__^                                   ----- ^-
      |  |        VII         V     III
    --------||--8-----7-----|-5-----3-----|-2-----1-----|
    --7--10-||------7-----8-|-----7-----3-|-----1-----0-|
    --------||*---7-----7---|---5-----4---|---2-----0---|
    =(0)-'/-||*-0-----------|-0-----------|-0-----0-----|
    --------||--------------|-------------|-------------|
    --------||--------------|-------------|-------------|
      |         2 1 1 1 1 2       3 1 2 1   3 2 1
      --
      i  m     
      1  4
      <<<<<


        III                                   V   I
E-0-----------|-------------|-------3-----|-8-----2-----|
B-----1-3-----|-1-----3-----|-0---------0-|-----5-----1-|
G---0-------4-|-----2-----2-|-----0---0---|---5-----2---|
D---------5---|---2-----0---|---0---2-----|-------0-----|
A-3-----------|-0-----------|-------------|-0-----------|
E-------3-----|-------2-----|-3-----------|-------------|
  3       3 2   1 2 3 4   2   3     4       4     3 2 1
                      1             2
 
E-3=====(3)------||
B-----0=(0)--'/--||
G---0===(0)-----*||
D---------------*||
A----------------||
E-3------3--'/---||
  3      2
  2

=======================================================
=======================================================
SYMBOLS
        |  quarter note   ||    ||
       __                 ||    ||
        |  eighth note    ||*  *||
                          ||*  *||  reprise
        |  eighth note    ||    ||
       --                 ||    ||
        
        |. dotted note           }  quarter rest

      rit. ritenendo            '/  eighth rest
           (to play slower)
                                ^   emphasized note
       ==  tie
                               (1)  ghost note
     <<<<  crescendo 
                                 ,  end of phrase
      VII  barre             ___
                             |h|
                            -0=1- - hammer-on
Добавлено: 22.05.2012
Другие материалы по этой песне:
  • Аккорды и текст

Страница создана 22.05.2012
http://primanota.ru/johann-kaspar-mertz/etude-in-g-allegretto-chords.htm
Привет, Гость.
Предлагаем пройти революционный курс по гитаре.
Подарок от PrimaNota.Ru, забирай!