PrimaNota.ru - самый крупный в мире бесплатный архив песенных текстов, аккордов, табулатур и нот


Joe Satriani - Overdriver - таба, видео

Регистрация Запомнить меня
Войти через:  Facebook Google Twitter Vk Yandex Mail.ru

Joe Satriani - Overdriver - таба, видео

Печатать
Просмотров: 196
Song: Overdriver - Joe Satriani

My first tab so i can't figure out the the other parts

Intro Bit

e|---------------------------|
B|---------------------------|
G|--2---2-----2---2----------|
D|---------------------------|
A|----0---0-0---0---/3-3-3-0-|
E|---------------------------|

tremolo bit

e|---------------------------|
B|---------------------------|
G|--2--0--2--5~--2--0--------|
D|---------------------------|
A|---------------------------|
E|---------------------------|

e|---------------------------|
B|---------------------------|
G|--0--2--6--2--0------------|
D|---------------------------|
A|---------------------------|
E|---------------------------|

e|---------------------------|
B|---------------------------|
G|--0--2--9--2--0------------|
D|---------------------------|
A|---------------------------|
E|---------------------------|

e|---------------------------|
B|---------------------------|
G|--0--2--11--2--0-----------|
D|---------------------------|
A|---------------------------|
E|---------------------------|
Добавлено: 21.05.2012
Другие материалы по этой песне:

Страница создана 18.03.2012
http://primanota.ru/joe-satriani/overdriver-chords.htm
Привет, Гость.
Предлагаем пройти революционный курс по гитаре.
Подарок от PrimaNota.Ru, забирай!