PrimaNota.ru - самый крупный в мире бесплатный архив песенных текстов, аккордов, табулатур и нот


Joe Satriani - Cryin - аккорды и текст, таба, бас-таба, видео

Регистрация Запомнить меня
Войти через:  Facebook Google Twitter Vk Yandex Mail.ru

Joe Satriani - Cryin - аккорды и текст, таба, бас-таба, видео

Печатать
Просмотров: 793
Cryin
Joe Satriani
E|--------------------------------------------|
B|--------------------------------------------|
G|--11h9--13--13--11h9------------9~--9-------|
D|----------------------11--9--11-------11--9-|
A|--------------------------------------------|
E|--------------------------------------------|
 
E|--------------------------------|
B|--------------------------------|
G|--11h9--13--13--11h9------------|
D|-----------------------11/14\9~-|
A|--------------------------------|
E|--------------------------------|

E|---------------------------------------------------------------------------|
B|---------------------------------------------------------------------------|
G|--11h9--13--13--11h9------------9~--9--------------------------------------|
D|----------------------11--9--11-------11--9--(r)--11/13--9--11--11/13\11\9-|
A|---------------------------------------------------------------------------|
E|---------------------------------------------------------------------------|

E|----------------------------------------------------|
B|--19p17--21--21--19p17--------------17~--17---------|
G|------------------------18--16--18-----------18--16-|
D|----------------------------------------------------|
A|----------------------------------------------------|
E|----------------------------------------------------|

E|---------19--19~--21--19~-|
B|--19p17-------------------|
G|--------------------------|
D|--------------------------|
A|--------------------------|
E|--------------------------|

E|--------------------------------------------------------------------------|
B|--19p17--21--21--19p17--------------17~--17----------16-------------------|
G|------------------------18--16--18-----------18--16------16--18--18h21p18-|
D|--------------------------------------------------------------------------|
A|--------------------------------------------------------------------------|
E|--------------------------------------------------------------------------|

E|------19~------19~-------------------17--16--14-------------|
B|--17-------17-------16--17--(r)--17--------------17--19~\17-|
G|------------------------------------------------------------|
D|------------------------------------------------------------|
A|------------------------------------------------------------|
E|------------------------------------------------------------|

E|------19~------19-------------------21--19--17--16------------|
B|--17-------17------16--17--(r)--17------------------19p17h19~-|
G|--------------------------------------------------------------|
D|--------------------------------------------------------------|
A|--------------------------------------------------------------|
E|--------------------------------------------------------------|

Next part is all slightly palm muted, you could also play it slightly near the
bridge, for the same effect.
E|---------------------------------------------------------------|
B|---------------------------------------------------------------|
G|---------------------------------------------------------------|
D|--------2--2--4--2--4--2--6sb--4p2-----------2--(qr)-----------|
A|--2--4-----------------------------4--2--4-----------4--2------|
E|-----------------------------------------------------------2b0-|
Heavy P.M. |____|

E|-----------------------------------------|
B|-----------------------------------------|
G|-----------------------------------------|
D|--------2--4--2--4--2--6sb--4p2----------|
A|--2--4-----------------------------4/7\2-|
E|-----------------------------------------|
Heavy P.M |____|

E|----------------------------------------------------|
B|----------------------------------------------------|
G|----------------------------------------------------|
D|--------2--4--2--4--2--6sb--4p2-----------2--2------|
A|--2--4---------------------------4--2--4--------4p2-|
E|----------------------------------------------------|
Heavy P.M. |____|

E|---------------------------------------9------------------------|
B|------------------------------------------9-----------------14~-|
G|------------------------4--4--6p4--11--------12--11--9--11------|
D|-----------2--4p2--4h6------------------------------------------|
A|--2--2--4-------------------------------------------------------|
E|----------------------------------------------------------------|

E|-----19~------19~-------------------17--16--14-------------------------------|
B|-17-------17-------16--17--(r)--17--------------17--19\17~-------------------|
G|---------------------------------------------------------------16--18p16h18~-|
D|-----------------------------------------------------------------------------|
A|-----------------------------------------------------------------------------|
E|-----------------------------------------------------------------------------|

E|----19~------19~-------------------21--19--17--16----------------------------|
B|-17------17------16--17--(r)--17------------------19p17h19~--17p16h17~--20\0-|
G|-----------------------------------------------------------------------------|
D|-----------------------------------------------------------------------------|
A|-----------------------------------------------------------------------------|
E|-----------------------------------------------------------------------------|
Добавлено: 22.09.2013
Другие материалы по этой песне:

Страница создана 24.02.2012
http://primanota.ru/joe-satriani/cryin-chords.htm
Привет, Гость.
Предлагаем пройти революционный курс по гитаре.
Подарок от PrimaNota.Ru, забирай!