PrimaNota.ru - самый крупный в мире бесплатный архив песенных текстов, аккордов, табулатур и нот


Joe Satriani - Raspberry Jam Delta V - таба, бас-таба, видео

Регистрация Запомнить меня
Войти через:  Facebook Google Twitter Vk Yandex Mail.ru

Joe Satriani - Raspberry Jam Delta V - таба, бас-таба, видео

Печатать
Просмотров: 181
-------------------------------------------------------------------------------
                   Raspberry Jam Delta V - Joe Satriani
-------------------------------------------------------------------------------

Tabbed by: Grant Smith
Email: bulletproof__cupid@hotmail.com

Tuning: Standard EADGBE

| /  slide up
| \  slide down
| h  hammer-on
| p  pull-off
| ~  vibrato
| +  harmonic
| x  Mute note
| b  Bend

Lead
                                                      
E||------|------------12p11p0------------------------|
B||------|--10p0-12p0---------10p0-12p0-10h12p0-10p0-|
G||------|-------------------------------------------|
D||------|-------------------------------------------|
A||------|-------------------------------------------|
E||------|-------------------------------------------|
                                         
------------12p11p0---------------------|
--10p0-12p0---------5p0-7p0-9h10-0-10p0-|
----------------------------------------|
----------------------------------------|
----------------------------------------|
----------------------------------------|
                                            
------------12p11p0------------------------|
--10p0-12p0---------10p0-12p0-10h12p0-10p0-|
-------------------------------------------|
-------------------------------------------|
-------------------------------------------|
-------------------------------------------|
                                         
------------12p11p0---------------------|
--10p0-12p0---------5p0-7p0-9h10-0-10p0-|
----------------------------------------|
----------------------------------------|
----------------------------------------|
----------------------------------------|
                                            
------------12p11p0------------------------|
--10p0-12p0---------10p0-12p0-10h12p0-10p0-|
-------------------------------------------|
-------------------------------------------|
-------------------------------------------|
-------------------------------------------|
                                         
------------12p11p0---------------------|
--10p0-12p0---------5p0-7p0-9h10-0-10p0-|
----------------------------------------|
----------------------------------------|
----------------------------------------|
----------------------------------------|
                                            
------------12p11p0------------------------|
--10p0-12p0---------10p0-12p0-10h12p0-10p0-|
-------------------------------------------|
-------------------------------------------|
-------------------------------------------|
-------------------------------------------|

With Digitech Whammy Pedal                                                           
--12p11p0-------------------------7--|--------------------|
----------12p10p0-10p9p0-7p5p0-7-----|--------------------|
-------------------------------------|--------------------|
-------------------------------------|--4p--2-------------|
-------------------------------------|--------------------|
-------------------------------------|--------------------|
                                                                      
---------------------|--------------------------|--------------------|
---------------------|--------------------------|--------------------|
---------------------|--------------------------|--------------------|
------------2--4--6--|--6h-7---7p6-4-2--4-------|--------------2--4--|
---------------------|-----------------------2--|--------------------|
---------------------|--------------------------|--------------------|
                                                      
--------------------------|--------------------------|
--------------------------|--------------------------|
--------------------------|--------------------------|
--6h-7----7p6p4-6--9-6----|--6~--7-------4-6---7--9--|
--------------------------|--------------------------|
--------------------------|--------------------------|
                                                                               
---------------------------|----------------------|---------------------------|
---------------------------|----------------------|---------------------------|
---------------------------|----------------------|--4-6--6----------4h6p4p2--|
--7p--6h7p6p4p2----4-------|----------------4-6-7-|---------------------------|
------------------------2--|--------------7-------|---------------------------|
---------------------------|----------------------|---------------------------|
                                                              
-------------------------|--------------------4h5--4h5p4---4-|
-------------------------|--------4-5---4-5-7------------7---|
--2-4---6-4--4-4~--------|----4-6-----6----------------------|
----------------------7--|--6--------------------------------|
-------------------------|-----------------------------------|
-------------------------|-----------------------------------|
                                                               
------------------------------|-------------------------------|
--7-5p4-----------------------|--7h9--9--7h9p7-5----5h7-9---9h|
--------6p4--4~---4-4-4-6-8-9-|-------------------------------|
------------------------------|-------------------------------|
------------------------------|-------------------------------|
------------------------------|-------------------------------|
                                                                
----------------------------------|----------------------------|
--10---9p7-5---7-9----7h9p7p0h5p0-|--5p0h5h7---7~---0-0-0--0-0-|
----------------------------------|----------------------------|
----------------------------------|----------------------------|
----------------------------------|----------------------------|
----------------------------------|----------------------------|
                                                                
----------0--2-2-4---4-5--5-5-|--9--9-9-7-7----5-5-----7--7-12h|
--0-0-0-0-0--0-0-0---0-0------|-------------0------0-0-0--0----|
------------------------------|--------------------------------|
------------------------------|--------------------------------|
------------------------------|--------------------------------|
------------------------------|--------------------------------|
                                             
--12-12-12-12-12-11-----12p11-11-11-11------|
--0-----------------0-0-0-----0--0--0---0-0-|
--------------------------------------------|
--------------------------------------------|
--------------------------------------------|
--------------------------------------------|
                                                                      
--9---7-9--9-9-9-11--11-11-11--7-7-|--7---5-5-9-9-9-7-7-5-7--7--7-14-|
--0-0-0-0--0-0-0-0-----------------|----0-----------------0--0--0----|
-----------------------------------|---------------------------------|
-----------------------------------|---------------------------------|
-----------------------------------|---------------------------------|
-----------------------------------|---------------------------------|
                                                                          
------12-----14-----12----------------|----------------------------------|
--10-----12-----10---------12----10-0-|---7-----------7p0-9p0-10p0-9-0-7-|
-----------------------11-----9-------|---------9------------------------|
--------------------------------------|-----9-7---7-9--------------------|
--------------------------------------|----------------------------------|
--------------------------------------|----------------------------------|
                                                           
------------------------------|---------------------------|
--0-7--7-7/-------------------|---------------------------|
-------------------9-----8----|--6----4----2--2h4-4--4----|
------------------------------|---------------------------|
------------8/-11-----10----8-|-----6----4----------------|
------------------------------|---------------------------|
                                                              
------------------------------|------------------------------|
------------------------------|------------------------------|
--4--2--4-2--4-2--4-2---4--2--|--4--2-4-2--4-2-4--2-4-2--4-2-|
------------------------------|------------------------------|
------------------------------|------------------------------|
------------------------------|------------------------------|
                                                             
------------------------------|-----------------------------|
---------------4r-4p2---------|-----------------------------|
--2~---2p0-4-2--------4-2-2---|----4------------------------|
----------------------------4/|--6---6-6p4------------------|
------------------------------|------------6--4p2------2----|
------------------------------|--------------------4-4------|
                                                                    
-----------------------16r|--16p14---------------------------------|
--19b-------19~-19/-------|--------17-16-14------------------------|
--------------------------|-----------------16-14-16-14~---14~-14/-|
--------------------------|----------------------------------------|
--------------------------|----------------------------------------|
--------------------------|----------------------------------------|
                                                          
--16-12h16p12-11-----------------------------------------|
-----------------12--------------------------------------|
--------------------13-8-------------------6h8p-6-8h9h11-|
--------------------------9p6--------6h7h9---------------|
------------------------------7p6h7----------------------|
---------------------------------------------------------|
                                                              
----------9h11h12p11p9---------------------------------------|
--9h10h12--------------12p9h10h12p9h10-----------------------|
---------------------------------------11p9p8h9h10p9p8-------|
-------------------------------------------------------9~-9/-|
-------------------------------------------------------------|
-------------------------------------------------------------|
                                         
----------------------------------------|
--0-0-12-10p0-9p0-10p0-12p10p0-9p0-10p0-|
----------------------------------------|
----------------------------------------|
----------------------------------------|
----------------------------------------|
                                              
---------------------------------------------|
--17p16p0-17p16p0-16p14p0-14p12p0-12p10p0-10-|
---------------------------------------------|
---------------------------------------------|
---------------------------------------------|
---------------------------------------------|
                                                                    
-------------------------------------|-----------------------------|
--9p0-12p10p0-9p7p0-10p9p0-9p7p0-7p5p|--0-5-4p0-4p2p0--------------|
-------------------------------------|-----------------2-4-4-4~----|
-------------------------------------|-----------------------------|
-------------------------------------|-----------------------------|
-------------------------------------|-----------------------------|
                                                       
----19r-----17~---17~--21-|--21r----------------------|
--------------------------|---------19~---19----------|
--------------------------|---------------------------|
--------------------------|--------------------4/-13--|
--------------------------|---------------------------|
--------------------------|---------------------------|
   t   t       t   t       t   t      t    t       t   t      t     t                       
--16p14h16p14-------------------------------------------------------------------|
--------------16p14h16p14-------------------------------------------------------|
--------------------------16p14h16p14-------------16p14h16p14-------------------|
--------------------------------------16p14h16p14-------------16p14h16p14-14p13h|
--------------------------------------------------------------------------------|
--------------------------------------------------------------------------------|
   t   t      t     t     t     t     t     t     t    t    t     t    t                     
--17-14-17-14-17-14-------------------------------------------------------------|
--------------------------------------------------------------------------------|
--------------------16-14-16-14-16-14-------------------------------------------|
--------------------------------------16-14-16-14-------------------------------|
--------------------------------------------------16-14-16-14-16-14-16-14-14-12-|
--------------------------------------------------------------------------------|
                                                              
----|------|-----------------------|----10/-19--------7/16---|
----|------|----------4---------5--|-------------------------|
----|------|--4----2---------2-----|-------------------------|
----|------|-----------------------|-------------------------|
----|------|--2--------------------|-------------------------|
----|------|-----------------------|-------------------------|
                                                                       
-----------------------|----10/-19------------|-----------------------|
----------4---------5--|----------------------|----------4---------5--|
--4----2---------2-----|----------------------|--4----2---------2-----|
-----------------------|----------------------|-----------------------|
--2--------------------|----------------------|--2--------------------|
-----------------------|----------------------|-----------------------|
                                                                         
----10/-19--------7/16---|-----------------------|----10/-19------------|
-------------------------|----------4---------5--|----------------------|
-------------------------|--4----2---------2-----|----------------------|
-------------------------|-----------------------|----------------------|
-------------------------|--2--------------------|----------------------|
-------------------------|-----------------------|----------------------|
                                                              
--------------------------|----------------------------------|
--7--x-7--x-7-------7-x-x-|------------------------------x-x-|
--7--x-7--x-7-------7-x-x-|------------------------------x-x-|
--7--x-7--x-7-------7-x-x-|--7-9-9-9-9-9-7-9-9-9-9-9-9-9-x-x-|
--------------------------|----------------------------------|
--------------------------|--5-7-7-7-7-7-5-7-7-7-7-7-7-7-----|
                                                                     
---------------------------|-----------------------------------------|
--9--x-9--x-9--------------|-----------------------------------------|
--9--x-9--x-9--------------|-----------------------------------------|
--9--x-9--x-9----9--9-9-9--|--12--12-12-11-11-11-11-11-9-9-9-7-9-9-9-|
---------------------------|-----------------------------------------|
-----------------7--7-7-7--|--10--10-10-9--9--9--9--9--7-7-7-5-7-----|
                                                              
---------------------7-7-7-|--7------------------------------|
--7--x-7--x-7----7---------|----7-7-7-7----------------------|
--7--x-7--x-7----7---------|------------7-7-7-7--------------|
--7--x-7--x-7----7---------|--------------------7-7-7-7------|
---------------------------|----------------------------7-7--|
---------------------------|---------------------------------|
                                                                                
---------------------------|--------------------19--|--21b---19~--19~----21b---|
--9--x-9--x-9--------------|--------------19~21-----|--------------------------|
--9--x-9--x-9--------------|------------------------|--------------------------|
--9--x-9--x-9-----------7b-|------------------------|--------------------------|
------------------------7b-|------------------------|--------------------------|
------------7----12/7------|------------------------|--------------------------|
                                   
--------21r-21b-19-------19-------|
-------------------22-21----22-21-|
----------------------------------|
----------------------------------|
----------------------------------|
----------------------------------|
                                                   
--19----------------------------------------------|
-----22-21-19-------19-------19-------19----------|
--------------22-21----22-21----22-21----22-21p19-|
--------------------------------------------------|
--------------------------------------------------|
--------------------------------------------------|
                                                                     
-----------------------------19-21-|--21r---19----22--19~---22b-22b-|
-----------------------19-21-------|-----------21-------------------|
-----21----19~--x------------------|--------------------------------|
--21----21------x------------------|--------------------------------|
----------------x------------------|--------------------------------|
----------------x------------------|--------------------------------|
                                    
--22b22b19----19~--21b-----21-x-21-|
-----------21----------------------|
-----------------------------------|
-----------------------------------|
-----------------------------------|
-----------------------------------|
                                                 
--21p-19-------19-------------------------------|
---------22-21----22-21-19-------19-------------|
---------------------------22-21----22-21p19----|
---------------------------------------------21-|
------------------------------------------------|
------------------------------------------------|
                                                                 
--------------------------------------------------|------|------|
--------------------------------------------------|------|------|
--21----19----------------------------------------|------|------|
-----21----21-19----------------------------------|------|------|
-----------------21-19-17-19-17-------------------|------|------|
--------------------------------19-17-19-17b17r17b|------|------|
                                                                           
------17---17~----17-17--17-|--17-16~----14h16p14-12--14--14-16--14-16-14-|
----------------------------|---------------------------------------------|
----------------------------|---------------------------------------------|
----------------------------|---------------------------------------------|
----------------------------|---------------------------------------------|
----------------------------|---------------------------------------------|
                                                                         
--12--14---------------------------|-----------------------------11--11-|
----------12~--12~--0-14p12p0-10p0-|--10h12p10p0h9h10p9p7---7--0--------|
-----------------------------------|------------------------------------|
-----------------------------------|------------------------------------|
-----------------------------------|------------------------------------|
-----------------------------------|------------------------------------|
                                                                           
--11--12-12--9-9-9-11-11~--11--12-11h12p11-|--7--7-9-11---9-9/5--7--9-5-7-|
-------------------------------------------|------------------------------|
-------------------------------------------|------------------------------|
-------------------------------------------|------------------------------|
-------------------------------------------|------------------------------|
-------------------------------------------|------------------------------|
                                                                            
-----5--------------------------------|------------------------------------|
--9-----9--5-7--9p5-5-7h9p7-5-5-------|------------------------------------|
--------------------------------9p8p6-|--8-9-8-6-----------8--9-----8-9-11-|
--------------------------------------|----------9-9--9~---------11--------|
--------------------------------------|------------------------------------|
--------------------------------------|------------------------------------|
                                                        
--------------------------|----------------------------|
--------------------------|----------------------------|
--8r----------------------|----------------------------|
------9-7---7-11----9~--9-|----------------------------|
--------------------------|--11---11r--9-7-9----9--0-0-|
--------------------------|----------------------------|
                                                      
------------------------|----------------------------|
------------------------|----------------------------|
--8~---6----------------|----------------------------|
----------9--7----------|------9------9--------6h7p6-|
------------------9--7--|--9-------------6h7h9-------|
------------------------|----------7--7--------------|
                                      
-----------9h12p-9-0---------16--16/--|
---------x----------------12----------|
-------x-------------21/--------------|
--6-----------------------------------|
-----9/-------------------------------|
--------------------------------------|
                                                 
--------17-21--17h21p17p16----------------------|
------x--------------------17-------------------|
----x-------------------------18-16-13----------|
------------------------------------------------|
---------------------------------------16-14~---|
------------------------------------------------|
                                                      
--------------------------------------------14-16p14-|
-----------------------------------14-16-17----------|
--------------13-14-13----13-14-16-------------------|
-----13-14-16----------16----------------------------|
--14-------------------------------------------------|
-----------------------------------------------------|
                                                                
--17b-17b17b17b-17b17b17b-17b17b17b-17b17b|--17~---------------|
------------------------------------------|--------------------|
------------------------------------------|--------------------|
------------------------------------------|--------------------|
------------------------------------------|--------------------|
------------------------------------------|--------------------|
                                                                 
--17~--------------17~|--17~---------------|--17~---------------|
--17~--------------17~|--17~---------------|--17~---------------|
----------------------|--------------------|--------------------|
----------------------|--------------------|--------------------|
----------------------|--------------------|--------------------|
----------------------|--------------------|--------------------|
                                                                            
------------------10--------|----------------------|---------------6--------|
-------------8--------------|----------------5h7p5-|------------6-----------|
-------11-------------------|----------------------|---------8--------------|
--9-------------------------|----------------------|------6-----------------|
----------------------------|----------------------|------------------------|
----------------------------|----------------------|------------------------|
                                                                 
------------------|----------------5--------|-------------------|
------------------|-----------5-------------|-------------------|
------------------|------7------------------|-------------------|
------------------|-------------------------|----------------5--|
------------------|-------------------------|-------------------|
------------------|-------------------------|-------------------|
                                                                       
---------7-----------|-------------------|----------------------------|
---------------------|-------------------|------------------10--------|
--6------------------|-------------------|-------------7--------------|
--4------------------|-------------------|-------11-------------------|
------------5--------|-------------------|----------------------------|
---------------------|----------------7--|--7-------------------------|
                                                                 
--------------------|----------------------|--------------------|
--------------------|----------------------|--------------------|
--------------------|----------------------|--------------------|
----------------11--|--11------------------|--------------11----|
--------------------|----------8--8--------|--------------------|
--------------------|----------------------|--------------------|
                                                                        
---------------------|----------------------|--------------14----14----|
---------------------|----------------------|--12----12----------------|
---------------------|----------------11----|--------------------------|
--9--------9------9--|--9----9~-------------|--------------------------|
---------------------|----------------------|--------------------------|
---------------------|----------------------|--------------------------|
                                                                         
--17b---17~-----------|-----------------------|-------------------------|
----------------------|----------4---------5--|-------------------------|
----------------------|--4----2---------2-----|-------------------------|
----------------------|-----------------------|--------7h9-9-9-9-9-9~---|
----------------------|--2--------------------|-------------------------|
----------------------|-----------------------|-------------------------|
                                                                         
-----------------------|------------------------------------------------|
----------4---------5--|------------------------------------------------|
--4----2---------2-----|------------------------------------------------|
-----------------------|------------------------------------------------|
--2--------------------|--------0~2~0~2~0~2~0~2~0~2~0~2~0~2~0~2~0~2~0~2~|
-----------------------|------------------------------------------------|
                                                                    
-----------------------|------------------------|-----------------------|
----------4---------5--|------------------------|----------4---------5--|
--4----2---------2-----|------------------------|--4----2---------2-----|
-----------------------|--------9~-9-9-9--9/-x--|-----------------------|
--2--------------------|------------------------|--2--------------------|
-----------------------|------------------------|-----------------------|
                                                                         
----10/-19------------|-----------------------|----10/-19--------7/16---|
----------------------|----------4---------5--|-------------------------|
----------------------|--4----2---------2-----|-------------------------|
----------------------|-----------------------|-------------------------|
----------------------|--2--------------------|-------------------------|
----------------------|-----------------------|-------------------------|
                                                                       
-----------------------|----10/-19------------|-----------------------|
----------4---------5--|----------------------|----------4---------5--|
--4----2---------2-----|----------------------|--4----2---------2-----|
-----------------------|----------------------|-----------------------|
--2--------------------|----------------------|--2--------------------|
-----------------------|----------------------|-----------------------|
                                                                         
----10/-19--------7/16---|-----------------------|----10/-19------------|
-------------------------|----------4---------5--|----------------------|
-------------------------|--4----2---------2-----|----------------------|
-------------------------|-----------------------|----------------------|
-------------------------|--2--------------------|----------------------|
-------------------------|-----------------------|----------------------|
                                           
------------12p11p0------------------------|
--10p0-12p0---------10p0-12p0-10h12p0-10p0-|
-------------------------------------------|
-------------------------------------------|
-------------------------------------------|
-------------------------------------------|
                                         
------------12p11p0---------------------|
--10p0-12p0---------5p0-7p0-9h10-0-10p0-|
----------------------------------------|
----------------------------------------|
----------------------------------------|
----------------------------------------|
                                            
------------12p11p0------------------------|
--10p0-12p0---------10p0-12p0-10h12p0-10p0-|
-------------------------------------------|
-------------------------------------------|
-------------------------------------------|
-------------------------------------------|
                                         
------------12p11p0---------------------|
--10p0-12p0---------5p0-7p0-9h10-0-10p0-|
----------------------------------------|
----------------------------------------|
----------------------------------------|
----------------------------------------|
                                            
------------12p11p0------------------------|
--10p0-12p0---------10p0-12p0-10h12p0-10p0-|
-------------------------------------------|
-------------------------------------------|
-------------------------------------------|
-------------------------------------------|
                                         
------------12p11p0---------------------|
--10p0-12p0---------5p0-7p0-9h10-0-10p0-|
----------------------------------------|
----------------------------------------|
----------------------------------------|
----------------------------------------|
                                            
------------12p11p0------------------------|
--10p0-12p0---------10p0-12p0-10h12p0-10p0-|
-------------------------------------------|
-------------------------------------------|
-------------------------------------------|
-------------------------------------------|
                                         
------------12p11p0---------------------|
--10p0-12p0---------5p0-7p0-9h10-0-10p0-|
----------------------------------------|
----------------------------------------|
----------------------------------------|
----------------------------------------|
                                            
------------12p11p0------------------------|
--10p0-12p0---------10p0-12p0-10h12p0-10p0-|
-------------------------------------------|
-------------------------------------------|
-------------------------------------------|
-------------------------------------------|
                                        
------------12p11p0---------------------|
--10p0-12p0---------5p0-7p0-9h10-0-10p0-|
----------------------------------------|
----------------------------------------|
----------------------------------------|
----------------------------------------|
                                            
------------12p11p0------------------------|
--10p0-12p0---------10p0-12p0-10h12p0-10p0-|
-------------------------------------------|
-------------------------------------------|
-------------------------------------------|
-------------------------------------------|
                                         
------------12p11p0---------------------|
--10p0-12p0---------5p0-7p0-9h10-0-10p0-|
----------------------------------------|
----------------------------------------|
----------------------------------------|
----------------------------------------|
                                            
------------12p11p0------------------------|
--10p0-12p0---------10p0-12p0-10h12p0-10p0-|
-------------------------------------------|
-------------------------------------------|
-------------------------------------------|
-------------------------------------------|
                                     
------------12p11p0---------------------|
--10p0-12p0---------5p0-7p0-9h10-0-10p0-|
----------------------------------------|
----------------------------------------|
----------------------------------------|
----------------------------------------|
                                            
------------12p11p0------------------------|
--10p0-12p0---------10p0-12p0-10h12p0-10p0-|
-------------------------------------------|
-------------------------------------------|
-------------------------------------------|
-------------------------------------------|
                                         
------------12p11p0---------------------|
--10p0-12p0---------5p0-7p0-9h10-0-10p0-|
----------------------------------------|
----------------------------------------|
----------------------------------------|
----------------------------------------|
                                            
------------12p11p0------------------------|
--10p0-12p0---------10p0-12p0-10h12p0-10p0-|
-------------------------------------------|
-------------------------------------------|
-------------------------------------------|
-------------------------------------------|
                                         
------------12p11p0---------------------|
--10p0-12p0---------5p0-7p0-9h10-0-10p0-|
----------------------------------------|
----------------------------------------|
----------------------------------------|
----------------------------------------|
                                            
------------12p11p0------------------------|
--10p0-12p0---------10p0-12p0-10h12p0-10p0-|
-------------------------------------------|
-------------------------------------------|
-------------------------------------------|
-------------------------------------------|
                                         
------------12p11p0---------------------|
--10p0-12p0---------5p0-7p0-9h10-0-10p0-|
----------------------------------------|
----------------------------------------|
----------------------------------------|
----------------------------------------|
                                            
------------12p11p0------------------------|
--10p0-12p0---------10p0-12p0-10h12p0-10p0-|
-------------------------------------------|
-------------------------------------------|
-------------------------------------------|
-------------------------------------------|
                                         
------------12p11p0---------------------|
--10p0-12p0---------5p0-7p0-9h10-0-10p0-|
----------------------------------------|
----------------------------------------|
----------------------------------------|
----------------------------------------|
                                            
------------12p11p0------------------------|
--10p0-12p0---------10p0-12p0-10h12p0-10p0-|
-------------------------------------------|
-------------------------------------------|
-------------------------------------------|
-------------------------------------------|
                                                                 
------------12p11p0---------------------|-----------------------|
--10p0-12p0---------5p0-7p0-9h10-0-10p0-|--10p0-12h-------------|
----------------------------------------|-----------------------|
----------------------------------------|-----------------------|
----------------------------------------|-----------------------|
----------------------------------------|-----------------------|
                                                                
------------------|------------------|-------------------|----||
------------------|------------------|-------------------|----||
------------------|------------------|--4----------------|----||
------------------|------------------|--4----------------|----||
------------------|------------------|--2----------------|----||
------------------|------------------|-------------------|----||
Добавлено: 25.04.2012
Другие материалы по этой песне:

Страница создана 27.02.2012
http://primanota.ru/joe-satriani/raspberry-jam-delta-v-chords.htm
Привет, Гость.
Предлагаем пройти революционный курс по гитаре.
Подарок от PrimaNota.Ru, забирай!