PrimaNota.ru - самый крупный в мире бесплатный архив песенных текстов, аккордов, табулатур и нот


Joe Satriani - Redshift Riders - таба, видео

Регистрация Запомнить меня
Войти через:  Facebook Google Twitter Vk Yandex Mail.ru

Joe Satriani - Redshift Riders - таба, видео

Печатать
Просмотров: 301
Уроки эстрадного вокала в Санкт-Петербурге
Авторы музыки: Joe Satriani

This is my first tab so be kind :)

Listen to song for timing

e|-------2-2-2-2---3---2h3p3----------------2-2-2-2---0----------------|
B|-------2-2-2-2---3---------2h3p2p0--------2-2-2-2---0---2h3p2--------|
G|-------------------------------------------------------------2h4p2---|
D|----4----------2----------------------4-----------2------------------|
A|---------------------------------------------------------------------|
D|---------------------------------------------------------------------|
                                  Repeat 4x


e|--------------------------------------------------------------------|
B|--------------------------------------------------------------------|
G|--------------------------------------------------------------------|
D|----4--4-4--4--2-----4--4-4--4--2-----4--4-4--4--2-----4--4-4--4--2-|
A|----4--4-4--4--2-----4--4-4--4--2-----4--4-4--4--2-----4--4-4--4--2-|
D|----4--4-4--4--2-----4--4-4--4--2-----4--4-4--4--2-----4--4-4--4--2-|



e|--------9---7~~---/12----------------------------------------------------|
B|---7~~------------------14p12h14~~~--------11\12/9\11~~9-----------------|
G|-------------------------------------------11\12/9\11~~9-----------------|
D|-------------------------------------------11\12/9\11~~9----4-5-2-4------|
A|------------------------------------------------------------4-5-2-4~~----|
D|------------------------------------------------------------4-5-2-4~~----|


e|--------9---7~~---/12--14----------------------------------------------------|
B|---7~~--------------------12-14~~-14\16/12~~---11\12/9\11~~9----------------|
G|-----------------------------------------------11\12/9\11~~9----------------|
D|-----------------------------------------------11\12/9\11~~9----4-5-2-4-----|
A|----------------------------------------------------------------4-5-2-4~~---|
D|----------------------------------------------------------------4-5-2-4~~---|


thats the general jist of it i think.
Добавлено: 07.06.2012
Другие материалы по этой песне:

Страница создана 23.02.2012
http://primanota.ru/joe-satriani/redshift-riders-chords.htm
Привет, Гость.
Предлагаем пройти революционный курс по гитаре.
Подарок от PrimaNota.Ru, забирай!