PrimaNota.ru - самый крупный в мире бесплатный архив песенных текстов, аккордов, табулатур и нот


Joe Satriani - Searching - таба, видео

Регистрация Запомнить меня
Войти через:  Facebook Google Twitter Vk Yandex Mail.ru

Joe Satriani - Searching - таба, видео

Печатать
Просмотров: 283
Авторы музыки: Joe Satriani

this is the tab for searching for joe satriani since nobody posted the guitar tab
and the only one was on powertab and guitar pro i decide to post it up for you
guys that dont have guitar pro or powertab

all credit goes to Guitar: Ben Max

this bit is clean guitar

hope that tab is a little bit better if anything is missing let me know

                                  Searching                                     


                                                                    Joe Satriani
Untitled



                                              PM PM                            
     W                   W                    E  E  S E   S  S S  S S  E   E   
E||-------------------|-------------------||----------------------------------|
B||-------------------|-------------------||----------------------------------|
G||-------------------|-------------------||----------------------------------|
D||-------------------|-------------------||-------------12--L--------11--11--|
A||-------------------|-------------------||----------9--------9s-7-0--0---0--|
E||-------------------|-------------------||--------7------------------x---x--|
B||-------------------|-------------------||--0--0--------------------10--10--|


  PM PM                           PM PM                            
  E  E  S E  S S S S S  E   E     E  E  S E   S  S S  S S  E   E   
-------------------------------|----------------------------------|
-------------------------------|----------------------------------|
-------------------------------|----------------------------------|
-------------9-L-------11--11--|-------------12--L--------11--11--|
----------9------9-7-0--0---0--|----------9--------9s-7-0--0---0--|
--------7---------------x---x--|--------7------------------x---x--|
--0--0-----------------10--10--|--0--0--------------------10--10--|


  PM PM                           PM PM                                     
  E  E  S E  S S S S S  Q         E  E  E  H        E     W                 
------------------------------||-----------------------|-------------------|
------------------------------||-----------------------|-------------------|
------------------------------||-----------------------|-------------------|
-------------9-L-------11-----||-----------------------|-------------------|
----------9------9-7-0--0-----||-----------------------|-------------------|
--------7---------------x-----||--------7--------------|-------------------|
--0--0-----------------10-----||--0--0-----------------|-------------------|





this part is distortion

                                  Searching                                     


                                                                    Joe Satriani
Untitled



  S Q    H        S S S    S   E   S   H.             
------------------------|----------------------------|
------------------------|----------------------------|
--------------------7-9-|--9s-11--11~--L~------------|
------------------9-----|----------------------------|
------------------------|----------------------------|
------------------------|----------------------------|
------------------------|----------------------------|


   H          E.    S  E    S S  
--------------------------------|
--------------------------------|
---L~---------L~----L\----<>9---|
------------------------------9-|
--------------------------------|
--------------------------------|
--------------------------------|


  S   E   S  S  S S S S T  T  S S  S  S   S   S    H.            S   S S S  
------------------------------------------------|--------------------------|
------------------------------------------------|--------------------------|
--9s-11--11--Ls-9---7-L-9p-7s-6-7p-6s-4-4g2-2g4-|--4~------------L\----7-9-|
------------------------------------------------|-------------------/9-----|
------------------------------------------------|--------------------------|
------------------------------------------------|--------------------------|
------------------------------------------------|--------------------------|


                         |----3----|  |----3----|    |---3--|  
  S   E   S  Q      E    S   S     S  S   S     S  S T   T  T  
--------------------------------------------------------------|
--------------------------------------------------------------|
--9s-11--11-11~-----L~---Lb--Lpbr--L--Lb--Lpbr--L--L-9h-11p-9-|
--------------------------------------------------------------|
--------------------------------------------------------------|
--------------------------------------------------------------|
--------------------------------------------------------------|


  |---3--|                          
  E  E   E   Q      E    E   E.  S  
-----------------------------------|
-----------------------------------|
--7--9--11--11~-----L~---L\--------|
---------------------------------9-|
-----------------------------------|
-----------------------------------|
-----------------------------------|


                           |--3--|                                             
  S   E   S  S S S S S S S T  T  T  S  S S  S    S  E.   H            E    E   
----------------------------------------------|-------------------------------|
----------------------------------------------|-------------------------------|
--9s-11--11--L-9---7-L-9---7h-9p-7s-6h-7-6s-4-|--2s-4~---4~--------7g16\------|
----------------------------------------------|-------------------------------|
----------------------------------------------|----------------------------x--|
----------------------------------------------|----------------------------x--|
----------------------------------------------|-------------------------------|


      S S    S  S    S S     S S    S  S    S S     S S    S S  
--/<>10-7------10-/<>7---/<>10-7------10-/<>7---/<>10-7------7-|
----------/<>7---------7---------/<>8---------8---------/<>8---|
---------------------------------------------------------------|
---------------------------------------------------------------|
---------------------------------------------------------------|
---------------------------------------------------------------|
---------------------------------------------------------------|


      S S    S  S    S S     S S    S S    S S    S S    S S  
--/<>10-5------10-/<>5---/<>10-5------9-/<>5---/<>9-5------5-|
----------/<>7---------7---------/<>5--------5--------/<>5---|
-------------------------------------------------------------|
-------------------------------------------------------------|
-------------------------------------------------------------|
-------------------------------------------------------------|
-------------------------------------------------------------|


      S S    S  S    S S     S S    S  S    S S     S S    S S  
--/<>10-7------10-/<>7---/<>10-7------10-/<>7---/<>10-7------7-|
----------/<>7---------7---------/<>8---------8---------/<>8---|
---------------------------------------------------------------|
---------------------------------------------------------------|
---------------------------------------------------------------|
---------------------------------------------------------------|
---------------------------------------------------------------|


      S S    S  S    S S     S S     S  S    S  S     S S     S S  
--/<>10-5------10-/<>5---/<>10-5-------12-/<>9----/<>12-9-------9-|
----------/<>7---------7---------/<>10---------10---------/<>10---|
------------------------------------------------------------------|
------------------------------------------------------------------|
------------------------------------------------------------------|
------------------------------------------------------------------|
------------------------------------------------------------------|


      S  S     S  S     S  S     S  S     S  S     S  S     S  S     S  S  
--/<>14-10-------14-/<>10----/<>14-10-------15-/<>10----/<>15-10-------10-|
-----------/<>12----------12----------/<>12----------12----------/<>12----|
--------------------------------------------------------------------------|
--------------------------------------------------------------------------|
--------------------------------------------------------------------------|
--------------------------------------------------------------------------|
--------------------------------------------------------------------------|


      S  S     S  S     S  S     S  S     S  S    S  S     S S     S S  
--/<>14-10-------14-/<>10----/<>14-10-------12-/<>9----/<>12-9-------9-|
-----------/<>10----------10----------/<>10---------10---------/<>10---|
-----------------------------------------------------------------------|
-----------------------------------------------------------------------|
-----------------------------------------------------------------------|
-----------------------------------------------------------------------|
-----------------------------------------------------------------------|


      S S    S  S    S S     S S    S  S    S S     S S    S S  
--/<>10-7------10-/<>7---/<>10-7------10-/<>7---/<>10-7------7-|
----------/<>7---------7---------/<>8---------8---------/<>8---|
---------------------------------------------------------------|
---------------------------------------------------------------|
---------------------------------------------------------------|
---------------------------------------------------------------|
---------------------------------------------------------------|


      S S    S  S    S S     S S    S S    S S    S S    S S  
--/<>10-5------10-/<>5---/<>10-5------9-/<>5---/<>9-5-/<>9-5-|
----------/<>7---------7---------/<>5--------5---------------|
-------------------------------------------------------------|
-------------------------------------------------------------|
-------------------------------------------------------------|
-------------------------------------------------------------|
-------------------------------------------------------------|


     \1/ \1/   \1/ \1/ \1/ \1/ \1/ \1/ \1/ \1/  
  E  S   S   S S   E   S   E   S   E   S   S    
--7--L---L---L-L---L---L---L---L---L---L---L---|
--7--L---L---L-L---L---L---L---L---L-----------|
-----------------------------------------------|
-----------------------------------------------|
-----------------------------------------------|
-----------------------------------------------|
-----------------------------------------------|


  \1/ \1/ \1/ \1/ \1/ \1/ \1/ \1/ \1/ \1/      
  |---3---|   |---3---|   |---3---|            
  E   E   E   E   E   E   E   E   E   E   E    
--L---L---L---L---L---L---L---L---L---L-------|
----------------------------------------------|
------------------------------------------2/--|
----------------------------------------------|
----------------------------------------------|
----------------------------------------------|
----------------------------------------------|


                             \1/       \1/       \1/           
   E.    S  S   S  T  T   T  T   S. T  S   S  S  T   S   T  S  
--17~------14s-15--L------------------------------------------|
----------------------------17s-19----15h-17----14h-15p-14----|
--------12-----------11s-12-----------------------------------|
-----------------------------------14--------14------------11-|
--------------------------------------------------------------|
--------------------------------------------------------------|
--------------------------------------------------------------|


   \1/                                         
   S   S  E   S  S   T  T  S  S E.   S   S E   
-------------10p-9h-10p-9s-7----7~---Ls-19----|
--12s-10-12------------------10---------------|
-------------------------------------------0--|
-------------------------------------------0--|
-------------------------------------------0--|
----------------------------------------------|
----------------------------------------------|


                                     PM PM                          
  E  E   S S S  S  S  S S S  Q       E  E   E    S S S S S S  Q     
----------------------------------|--------------------------------|
----------------------------------|--------------------------------|
----------------------------------|--------------------------------|
---------------12--L-12-----11----|----------------9-L-------11----|
-------------9----------7-0--0----|------------7g9-----9-7-0--0----|
-----------7-----------------x----|---------------------------x----|
--0--0--/9------------------10----|--0--0--/7----------------10----|


  PM PM                               PM PM                        
  E  E   S S S  S  S S  S S  E  E     E  E   S E  S S S S S  Q     
-----------------------------------|------------------------------|
-----------------------------------|------------------------------|
-----------------------------------|------------------------------|
---------------12--L-9s-7---11-----|--------------9-L-------11----|
-------------9------------0-----0--|------------------9-7-0--0----|
-----------7-----------------------|-----------7-------------x----|
--0--0--/7-------------------------|--0--0--/7--------------10----|


  PM PM                                PM PM                         
  E  E   S S S  S  S S  S S  E   E     E  E  S  S S S S S S S  Q     
------------------------------------|-------------------------------|
------------------------------------|-------------------------------|
------------------------------------|-------------------------------|
---------------12--L-9s-7---11--11--|---------------9-L-------11----|
-------------9------------0--0---0--|-------------9-----9-7-0--0----|
-----------7-----------------x---x--|--------5s-7--------------x----|
--0--0--/9------------------10--10--|--0--0-------------------10----|


  PM PM                              PM PM                             
  E  E   S S S  S  S S  S S  Q       E  E  S  S S S S S S S     Q      
----------------------------------|-----------------------------------|
----------------------------------|-----------------------------------|
----------------------------------|-----------------------------------|
---------------12--L-9s-7---11----|---------------9-L-----------------|
-------------9------------0--0----|-------------9-----9-7-0-----------|
-----------7-----------------x----|--------5s-7-----------------------|
--0--0--/7------------------10----|--0--0-------------------10g17s----|


  E  E  H        Q       W                   W                 
----------------------|-------------------|-------------------|
----------------------|-------------------|-------------------|
----------------------|-------------------|-------------------|
----------------------|-------------------|-------------------|
----------------------|-------------------|-------------------|
----------------------|-------------------|-------------------|
--0--0----------------|-------------------|-------------------|


                                           NH 
  W                   H        S Q    E    S  
-------------------|------------------0--<>5-|
-------------------|------------------0------|
-------------------|-------------------------|
-------------------|-------------------------|
-------------------|-----------2-2-----------|
-------------------|-----------2-2-----------|
-------------------|-------------------------|


  \6     /0 \6 /2 \6 /1 \6 \6                /0    \6  /0 \6 /0  
            |--6--|  |--6--|                                     
  Q.     E  T  T  T  T  T  T  Q.        Q    Q     E   E  E  E   
--L------L--L--L--L--L--L--L--L------|--L----L-----L---L--L--L--|
-------------------------------------|------------(0)--L--L--L--|
-------------------------------------|------------(0)--L--L--L--|
-------------------------------------|------------(0)--L--L--L--|
-------------------------------------|--------------------------|
-------------------------------------|--------------------------|
-------------------------------------|--------------------------|


          \6   -/0                                   
  E.    S Q    E   E  Q       S  E.   H.             
--L-----L-L----L-----------|------------------------|
--L---<>0-L----L-----------|------------------------|
--L-----L-L----L-----------|--4s-6~---L~------------|
--L-----L-L----L-----------|------------------------|
---------------------------|------------------------|
---------------------------|------------------------|
---------------------------|------------------------|


  Q     E   S  S  S  S.   E    S   S E   E  E  S  S  S   
--------------------------------------------------------|
--------------------------------------------------------|
--L~----L~--6h-7p-6s-4--4g6--6g9-9g7-Ls--6--7--6h-7p-6s-|
--------------------------------------------------------|
--------------------------------------------------------|
--------------------------------------------------------|
--------------------------------------------------------|


  S   S   Q      E  S T  T T  T T T S   E    S  
-----------------------------------------------|
-----------------------------------------------|
--4-4g2-2g4----4g6--L-7p-6-7p-6---6------------|
--------------------------------9---7-7g9--9g4-|
-----------------------------------------------|
-----------------------------------------------|
-----------------------------------------------|


           /2\ /2\   /2\ /2\         
    Q    S E   S   S E   S   E   E   
------------------------------------|
------------------------------------|
------------------------------------|
--4g2----L-L---L---L-L---L---Ls--3--|
------------------------------------|
------------------------------------|
------------------------------------|


  T  T  T  T T  T S S  T  T  T S. E  T  T  T  T Q      
------------------------------------------------------|
------------------------------------------------------|
------------------------------------------------------|
--2h-3p-2p-0-2p-0--------------4--L--Ls-6h-7h-9-6~----|
------------------2-Ls-4h-5h-7------------------------|
------------------------------------------------------|
------------------------------------------------------|


  |----3---| |-3-|                 |--3-| |----5----|  
  Q     S  S S S S T T T T  T  T S S  S S S S S S   S  
------------------------------------------------------|
-------------------------7-10p-7-9-Lp-7---7---7-------|
-------------6-7---6-7-9----------------9---9---9s-11-|
--L~----7h-9-----9------------------------------------|
------------------------------------------------------|
------------------------------------------------------|
------------------------------------------------------|


             |---3--|            |-3-| |--3-|      
   Q      S  T   T  T  S   S S S S S S S S  Q      
--------------------------------------------------|
--------------------------------------------------|
--11~-----L~-9h-11p-9s-7-7g6-7---6-------7s-9~----|
-------------------------------9---7-9-L----------|
--------------------------------------------------|
--------------------------------------------------|
--------------------------------------------------|


  E.   S E  E   S  E.   E   S  S   
----------------------------------|
----------------------------------|
--L~---4-L--4~--L~-4~---4~--4~-L~-|
----------------------------------|
----------------------------------|
----------------------------------|
----------------------------------|


           |--3-|                                                  
  S  T  T  S S  S T  T T  T T  T T  T T  T T  T  Q    T   T  T  T  
------------------------------------------------------------------|
--0-10p-9p-0-9p-0-9p-0-9p-0-9p-0-9p-0-9p-0-9p-0-10----9h-10p-9p-0-|
------------------------------------------------------------------|
------------------------------------------------------------------|
------------------------------------------------------------------|
------------------------------------------------------------------|
------------------------------------------------------------------|


  T  T T  T T  T T  T T  T T  T  E   S T   T  T  T T  T  T  T T  T  T  S.  
--------------------------------------------------------------------------|
--9p-0-9p-0-9p-0-9p-0-9p-0-9p-0-10---L-9h-10p-9p-0-7h-9p-7p-0-5h-7p-5s-3p-|
--------------------------------------------------------------------------|
--------------------------------------------------------------------------|
--------------------------------------------------------------------------|
--------------------------------------------------------------------------|
--------------------------------------------------------------------------|


                  |--3--|          |--3--|                          |--3--|     
    E  T  T  T  T T  T  T   T  T S T  T  T  S T  T  T T T T T X  X  T  T  T T  T
------------------4h-5h-7-7g4s-5-9-Lp-7p-5h-7-5h-7p-5---5-----------------------
--3g2--Ls-3h-5h-7-------------------------------------9---9-7-5h-7h-9p-7p-5-9p-5
--------------------------------------------------------------------------------
--------------------------------------------------------------------------------
--------------------------------------------------------------------------------
--------------------------------------------------------------------------------
--------------------------------------------------------------------------------


      |--3--|           |--6--| |-6-|             |--6--|   |--6--|             
  T T T  T  T T  T  T T T  T  T T T T  T  T  T  T T  T  T   T  T  T  T  T  T   T
--------------------------------------------------------------------------------
----5---------------------------------------------------------------------------
--9---9p-7p-6-9p-7p-6---6h-7p-6---6---------------6s-7h-9h-11p-9p-7-------------
----------------------9---------9---9p-7p-6h-7h-9-------------------11p-7h-9h-11
--------------------------------------------------------------------------------
--------------------------------------------------------------------------------
--------------------------------------------------------------------------------


  E      E    E.   S   Q      E.    S  
-----12g17b---L---17~--L~-----L~---16-|
--------------------------------------|
--------------------------------------|
--------------------------------------|
--------------------------------------|
--------------------------------------|
--------------------------------------|


         |---3--|  |--3--|                                            
   S  S  S  S   S  S  S  S  E   E    S  S  Q        W                 
---L-14-----------------------------------------|--------------------|
------------------------------------------------|--------------------|
--------16-14s-13----------------------14--L----|---L----------------|
------------------14---------------/17----------|--------------------|
---------------------16-14-12---L---------------|--------------------|
------------------------------------------------|--------------------|
------------------------------------------------|--------------------|


                            NH    
  S E   Q     Q      S  S   S E   
---------------------------------|
--------------------------<>5----|
--------L-----L~-----L~-------0--|
---------------------------------|
------------------------0--------|
---------------------------------|
---------------------------------|


             |--6--|  |--6--|  |--6--|  |--6--|                                 
    S  T  T  T  T  T  T  T  T  T  T  T  T  T  T  S  S  T T   S  S  S  S  S S  S 
------17----17----17----17----17----17----17----17-------------12-12-12---------
--/19----19----19----19----19----19----19----19----19-17---/15-------------0-12-
---------------------------------------------------------0--------------14------
--------------------------------------------------------------------------------
--------------------------------------------------------------------------------
--------------------------------------------------------------------------------
--------------------------------------------------------------------------------


   S     S  T  T  T  T  S   S  S  S  S  S  S     S  E.   S   
------------------------------------------------------------|
------------------------------------------------------------|
--14-------14----14----14-----------------------------------|
-----14g16----16----16--------16----14----12-------14---14s-|
--------------------------/17----16----14----14g16----------|
------------------------------------------------------------|
------------------------------------------------------------|


                                   |-6-| |-6-|                              
  Q     S E  S  Q     S  E.        S S S S S S  E.   S S E.   S S T  T T T  
------------------------------|--------------------------------------------|
------------------------------|--------------------------------------------|
----------------------7s-9~---|--9g7------------------------------6h-7---6-|
--9~----7-9--9~-L~------------|------9-7-9-7-9~-L~---9-L-7~-----9------9---|
------------------------------|-------------------------------0------------|
------------------------------|--------------------------------------------|
------------------------------|--------------------------------------------|


  |--6--| |---6--| |--6-| |--6-|                   
  S S   S S    S S S  S S S  S S Q.      T  T T T  
-----------------7-9-10-7-9----7-9p------7----7-9-|
------<>7-8-<>10------------10-------------10-----|
--7-9---------------------------------------------|
--------------------------------------------------|
--------------------------------------------------|
--------------------------------------------------|
--------------------------------------------------|


   |-3-|                   |--3--|       |--6-|  |--6-|   
   S S S  S S  S    E    S S  S  S S  S  S S  S  S S  S   
--10-7-9----7--------------7-----7-------7-------7-------|
---------10---10br--Lb---L---10b---7-10b---7-10b---7-10b-|
---------------------------------------------------------|
---------------------------------------------------------|
---------------------------------------------------------|
---------------------------------------------------------|
---------------------------------------------------------|


       |--3--| |-3-|                                                 
  S S  S  S  S S S S  T  T  T T  T  T S  T T  T  T T   T  T T T T S  
--7---10p-7----7-9-7h-9p-7----7------------7------------------------|
----7-------10-------------10---10p-7----7---10p-7------------------|
--------------------------------------9b-----------9br-Lp-7---9---7-|
------------------------------------------------------------9---9---|
--------------------------------------------------------------------|
--------------------------------------------------------------------|
--------------------------------------------------------------------|


                              W  W                
  T T T  T  T  T T  T  T S.   E  E  S  S S S S S  
---------------------------------------0-L-0-0---|
---------------------------------------0-L-0-0---|
--6-7-6h-7p-6s-4-6p-4s-2-4--<>4--4--4/-----------|
-----------------------------------------------0-|
-----------------------------------------------0-|
-------------------------------------------------|
-------------------------------------------------|


                          |---3---|          |---3---|              
  S S   S  S   Q      S   T   T   T   T   T  T   T   T  S   E   S   
-------------------------------------------------------------------|
-------------------------------------------------------------------|
----4S-14-14~--L~-----L~-12h-14p-12s-11h-12-11h-12p-11s-9s-11--12s-|
-------------------------------------------------------------------|
-------------------------------------------------------------------|
-------------------------------------------------------------------|
--0----------------------------------------------------------------|


            |---3---|                                                           
   S  E.    T   T   T   S  X   X   T   T  T   X   X  S   X  X  S  X  X  T T  S T
--------------------------------------------------------------------------------
--------------------------------------------------------------------------------
--14-16~---14h-16p-14s-12-14p-12p-11h-12-11h-12p-11s-9h-11p-9s-7h-9p-7s-6-Lh-7-6
--------------------------------------------------------------------------------
--------------------------------------------------------------------------------
--------------------------------------------------------------------------------
--------------------------------------------------------------------------------


                |----3---|                        |--3--|      
  T  T T  T  E  E    E   E    E    S   S   S T  T T  T  T T T  
--------------------------------------------------------------|
--------------------------------------------------------------|
--------------------------------------------------------------|
--9s-7-4h-7p-5--L--5g4s--2--2g4--4g7-7g5-5g4-5p-4-4h-5p-4---4-|
----------------------------------------------------------7---|
--------------------------------------------------------------|
--------------------------------------------------------------|


                   PM   PM PM      NH  NH 
  S  E  S  E   E   S  S S  S  E    S   S  
-----------------------------------------|
-----------------------------------------|
----------------------7-------7----------|
----------------------7-------7--<>7-<>7-|
--5s-7--9~-L~--9~--9----7--9-------------|
-----------------------------------------|
-----------------------------------------|


    NH  NH  NH       NH  NH    NH  NH       NH         NH          
    S   S   Q.       S   E.    S   E.       H          E.  Q    S  
---------------------------------<>7---|--<>L--------<>L----------|
----------<>7------<>7-<>7---<>7-------|--------------------------|
--<>7-----<>7------<>7-----------------|--------------------------|
------<>7------------------------------|--------------------------|
---------------------------------------|--------------------------|
---------------------------------------|--------------------------|
---------------------------------------|--------------------------|


                     NH                    \6    -/0    
  E  Q    H          E     S E  H          E.    S  S   
-------------------<>5--|----------------<>L---<>L-----|
------------------------|--------------------------10b-|
------------------------|------------------------------|
------------------------|------------------------------|
------------------------|------------------------------|
------------------------|------------------------------|
------------------------|------------------------------|


                       W  W          
  S  S   Q    S S  E   E  S S S  S   
--7-----------7--------7--L-7-------|
----10b--L------7-10b---------7-10b-|
------------------------------------|
------------------------------------|
------------------------------------|
------------------------------------|
------------------------------------|


              |--6-|  |--6-|        |---6--|   |--6--|                          
  S  S  S  S  S S  S  S S  S  S   S T   T  T   T  T  T T   T  T  T T   T  T  T  
--7-----7-----7-------7-------7h-10-7h-10p-7h-10p-7----7h-10p-7----7h-10p-7----|
----10b---10b---7-10b---7-10b-----------------------10----------10----------10-|
-------------------------------------------------------------------------------|
-------------------------------------------------------------------------------|
-------------------------------------------------------------------------------|
-------------------------------------------------------------------------------|
-------------------------------------------------------------------------------|


                     |--3-|   |--3-|       |---3--|       |--3--|               
  T   T  T  T T   T  T  T T   T  T T  T  T T   T  T  T  T T  T  T T  T T T T  T 
--7h-10p-7----7h-10p-7----7h-10p-7---10p-7-9h-10p-9p-7--------------------------
-----------10----------10----------9-------------------10-7h-8h-9-8p-7-9-7-8p-7-
--------------------------------------------------------------------------------
--------------------------------------------------------------------------------
--------------------------------------------------------------------------------
--------------------------------------------------------------------------------
--------------------------------------------------------------------------------


                                  W  W                     T      T      T   
        |--3--|                                        |---6---|  |---6--|   
  T  T  T  T  T  S T  T T T T T T S. E.  S   S  T   T  T   T   T  T   T  T   
----------------------------------------------------------------------------|
-----------------------------------------------12s-11-----------------------|
--6p-4h-6p-4s-2s-4-6h-7-4---4---4----------/13--------14h-16p-14-16p-14-16p-|
--------------------------7---7---4--L---4----------------------------------|
----------------------------------------------------------------------------|
----------------------------------------------------------------------------|
----------------------------------------------------------------------------|


         T      T      T      T      T      T      T      T      T      T      T
      |---12-|  |---12-|   |---12-|  |---12-|   |---12-|  |---12-|   |---12-|  |
  E   T  T   T  T   T  T   T  T   T  T   T  T   T  T   T  T   T  T   T  T   T  T
--------------------------------------------------------------------------------
--------------------------------------------------------------------------------
-----14-16p-14-16p-14-16p-14-16p-14-16p-14-16p-14-16p-14-16p-14-18p-13-19p-13-19
--------------------------------------------------------------------------------
--------------------------------------------------------------------------------
--------------------------------------------------------------------------------
--------------------------------------------------------------------------------


                    \1 /0     \1 /0        /0    
   E   Q.      S    T  T  E   T  T  E      T  T  
------12-------L-<>12--L--L---L--L--L--12g12--L-|
------------------------------------------------|
--14--------------------------------------------|
------------------------------------------------|
------------------------------------------------|
------------------------------------------------|
------------------------------------------------|


                               |---3--|  |--6--|  |--6--|   
   Q      S    S   E      E    S  S   S  S  S  S  S  S  S   
----------------------------------------------12-14-17-12h-|
--15~----12-<>15b--Lpbr---L~--12-----12-14-15--------------|
---------------------------------14b-----------------------|
-----------------------------------------------------------|
-----------------------------------------------------------|
-----------------------------------------------------------|
-----------------------------------------------------------|


   |--3--|                                                         
   S  S  S  T  T   T  T  S  T  T   E    E    S   S  T  S  T  S  S  
--14----12------------------------------------------------------7-|
-----15----12-15p-12----12----12~--L~--12~------10~-0-10~-0-10~-7-|
---------------------14----14---------------14\-------------------|
------------------------------------------------------------------|
------------------------------------------------------------------|
------------------------------------------------------------------|
------------------------------------------------------------------|


   T  T  T  T  T  T  T T  T  T  T  T  T T  T  T  T  T  T  T T  T  S  T  T  T  T 
--12p-7-12-12p-7-12p-7-7-12-12p-7-12p-7-7-12p-7-12p-7-12p-7-7-12p-7-12p-7-12p-7-
--12p-7-12-12p-7-12p-7-7-12-12p-7-12p-7-7-12p-7-12p-7-12p-7-7-12p-7-12p-7-12p-7-
--------------------------------------------------------------------------------
--------------------------------------------------------------------------------
--------------------------------------------------------------------------------
--------------------------------------------------------------------------------
--------------------------------------------------------------------------------


   T  T  T  T T  T  S  T  T  T  T T  T  S  T  T  T  T T  T  S  T  T  T  T T  T  
--12p-7-12p-7-7-12p-7-12p-7-12p-7-7-12p-7-12p-7-12p-7-7-12p-7-12p-7-12p-7-7-12p-
--12p-7-12p-7-7-12p-7-12p-7-12p-7-7-12p-7-12p-7-12p-7-7-12p-7-12p-7-12p-7-7-12p-
--------------------------------------------------------------------------------
--------------------------------------------------------------------------------
--------------------------------------------------------------------------------
--------------------------------------------------------------------------------
--------------------------------------------------------------------------------


   T  T  T  T T  T  S  T  T  T  T  T  T  S  T  T  T  T  T  T  S  T  T  T  T  T  
--12p-7-12p-7-7-12p-7-10p-7-10p-7-10-10p-7-10p-7-10p-7-10-10p-7-10p-7-10p-7-10-1
--12p-7-12p-7-7-12p-7-10p-7-10p-7-10-10p-7-10p-7-10p-7-10-10p-7-10p-7-10p-7-10-1
--------------------------------------------------------------------------------
--------------------------------------------------------------------------------
--------------------------------------------------------------------------------
--------------------------------------------------------------------------------
--------------------------------------------------------------------------------


   T  T  T  T  T  T  T T  T  T  T  T  T  T  T T  T  T  T  T S  S  S  E   S  
--12p-7-12p-7-10-10p-7-7-12p-7-12p-7-10-10p-7-7-12p-7-10-10-7\----0--------|
--12p-7-12p-7-10-10p-7-7-12p-7-12p-7-10-10p-7-7-12p-7-10-10-7\----0--------|
---------------------------------------------------------------2/---14--14-|
---------------------------------------------------------------------------|
---------------------------------------------------------------------------|
---------------------------------------------------------------------------|
---------------------------------------------------------------------------|


   T  T  T  T  T  T  T  T  S  E  S S S S S   S   T  T  T  T  T  T  
------------------------------------------------------------------|
------------------------------------------------------------------|
--14-14-14-14-14-14-14-14-14\-------------------14-14-14-14-14-14-|
-----------------------------------9------------------------------|
------------------------------0--9--------------------------------|
-------------------------------------7---7s-10/-------------------|
---------------------------------------0--------------------------|


   T  T  T  T  E   S S S S  E.   S  E    T  T  T  T  
----------------------------------------------------|
----------------------------------------------------|
--14-14-14-14-14\------0-9~-L~---L\-2/--14-14-14-14-|
-------------------0-2-0------------2/--------------|
-------------------0-2------------------------------|
----------------------------------------------------|
----------------------------------------------------|


   T  T  T  T  E      E.   S S S  E   S  T  T  T  T  T  T  
----------------------------------------------------------|
----------------------------------------------------------|
--14-14-14-14-14\-----------------------14-14-14-14-14-14-|
----------------------------------------------------------|
--------------------------------------x-------------------|
----------------------------------x-----------------------|
-------------------7g17\---0-L-0--------------------------|


           \4 /2   /0                                           
   S     S E  Q    E.  S S S S S    Q    E  S S E  S S S S S S  
-------------------------------5-|--L--------------------------|
-------------------------------5-|--L------------------------0-|
--14---------------------0-------|-------4--4-2-L--4-2-4-4-x---|
---------------------------------|-----------------------------|
-----------------------------0---|-----------------------------|
-----10g12-----------------0-----|-----------------------------|
-----------0--L----L---L---------|-----------------------------|


  S S S S S S S S S S S S S  S T   S T  
---------------------------------------|
----0---0---0---0---0---0------------7-|
--0---2-------0---0-------7-10-7h-10---|
----------0-----------0----------------|
---------------------------------------|
---------------------------------------|
---------------------------------------|


                |--6-| |--6-|                                           |---3--|
   S T  S T  S  S S  S S  S S  T   T T  T T   T  T  T T   T  T  T T   T T   T  T
--------------------------------------------------------------------------------
--10-7-10-7-------7----7-10-7--------7-10-7h-10p-7----7h-10p-7----7h-10-7h-10p-7
------------10--L---10--------10b--L---------------10----------10---------------
--------------------------------------------------------------------------------
--------------------------------------------------------------------------------
--------------------------------------------------------------------------------
--------------------------------------------------------------------------------


                                                               |--6--|  |--6--| 
   T  T  T  T  T  T  T  T  T  T  T  T  T  T  T  T  T  T  T  T  T T   T  T  T  T 
--------------------------------------------------------------------------------
-----10p-7----12p-7----10p-7----12p-7----10p-7----12p-7----10p-7-7h-12-12p-7----
--10-------10-------10-------10-------10-------10-------10-------------------10-
--------------------------------------------------------------------------------
--------------------------------------------------------------------------------
--------------------------------------------------------------------------------
--------------------------------------------------------------------------------


   T  T  T  T T T  T T  T  T  T  T T  T  T T  T  T  T  T  T  T  T  T  T  T S T T
--10p-7-10p-7---9p-7---12p-7-12p-7---10p-7---12p-7-14p-7-14p-7-13p-7-12p-7-7-7-7
--------------7------7-------------7-------7------------------------------------
--------------------------------------------------------------------------------
--------------------------------------------------------------------------------
--------------------------------------------------------------------------------
--------------------------------------------------------------------------------
--------------------------------------------------------------------------------


   PMPM PM PM                                                                   
   S T  T  T   T  T T  T  T  T  T T T  T T T   T  T  T  T T T  T  T  T T T    T 
-----7--7-----12p-7-7-11p-7-10p-7---9p-7---9h-10p-9p-7--------------------------
--10-------7----------------------7------7-------------10-7-9-10p-9p-7----------
-----------------------------------------------------------------------9-7-9g11p
--------------------------------------------------------------------------------
--------------------------------------------------------------------------------
--------------------------------------------------------------------------------
--------------------------------------------------------------------------------


   T  T  T T T  T T T  S T T  T  T T T T  T  T T T  T T T  T  T T T S  S  
-------------------------------------------------------------------------|
-------------------------------------------------------------------------|
--10p-9p-7---9p-7---7s-6-7-6h-7p-6---6-----------------------------------|
-----------9------9----------------9---9p-7p-6-9-7p-6---6h-7p-6----------|
------------------------------------------------------9---------9-7-5s-7-|
-------------------------------------------------------------------------|
-------------------------------------------------------------------------|


                                          PM PM      PM   PM PM              
  Q     E.   S  S  S S S  E   S S    S  S S  S  S  S S  S S  S  S S E.   S   
----------------------------------|-----------------------------------------|
----------------------------------|-----------------------------------------|
----------------------------------|-----------------------------------------|
----------------------------------|-----------------------------------------|
--7~----7~---7~-L~-9-7-9~-L~--7-9-|-----------------------------------------|
----------------------------------|--5s-7-------5s-7----7-------5-5-5~------|
----------------------------------|-------0--0-------0----0--0-----------7\-|


  PM PM      PM PM     PM PM              
  S  S  S  S S  S  S S S  S  E   E   E    
-----------------------------------------|
-----------------------------------------|
-----------------------------------------|
-----------------------------------------|
-----------------------------------------|
--------5s-7-------5-7-------5~--5~------|
--0--0-------0--0------0--0----------7\--|


  PM PM      PM PM     PM PM                PM PM     PM PM                     
  S  S  S  S S  S  S S S  S  E   E   E      S  S  S S S  S  E   Q        Q      
-----------------------------------------|-------------------------------------|
-----------------------------------------|-------------------------------------|
-----------------------------------------|-------------------------------------|
-----------------------------------------|-------------------------------------|
-----------------------------------------|-------------------------------------|
--------5s-7-------5-7-------5~--5~------|--------5-7-------5------------------|
--0--0-------0--0------0--0----------7\--|--0--0------0--0-----15\----3g17\----|


  W                   W                   S S E  E  E  Q    E  S S  
-------------------|-------------------|---------------------------|
-------------------|-------------------|---------------------------|
-------------------|-------------------|---------------------------|
-------------------|-------------------|---------------------------|
-------------------|-------------------|---------------------------|
-------------------|-------------------|---------------------------|
-------------------|-------------------|--x-x-0--x-------------x-x-|


  S S E  E  E  H           W                   W                 
------------------------|-------------------|-------------------|
------------------------|-------------------|-------------------|
------------------------|-------------------|-------------------|
------------------------|-------------------|-------------------|
------------------------|-------------------|-------------------|
------------------------|-------------------|-------------------|
--0---0--x--------------|-------------------|-------------------|




   W                   W                     S Q    H        S S S  
|-------------------|--------------------||------------------------|
|-------------------|--------------------||------------------------|
|-------------------|--------------------||--------------------7-9-|
|-------------------|--------------------||------------------9-----|
|-------------------|--------------------||------------------------|
|-------------------|--------------------||------------------------|
|-------------------|--------------------||------------------------|


  S   E   S  H.                H          Q     E.  S  
---------------------------|--------------------------|
---------------------------|--------------------------|
--9s-11--11-11~------------|---L~---------L\----------|
---------------------------|------------------------9-|
---------------------------|--------------------------|
---------------------------|--------------------------|
---------------------------|--------------------------|


                          |--3--|        |--3--|     
  S   E   S  S  E  S S E  T  T  T  S  S  T  T  T  S  
----------------------------------------------------|
----------------------------------------------------|
--9s-11--11--Ls-9--7-L-9--7h-9p-7s-6h-7p-6h-7p-6s-4-|
----------------------------------------------------|
----------------------------------------------------|
----------------------------------------------------|
----------------------------------------------------|


    S   E.  H         S   S S S  
--------------------------------|
--------------------------------|
--4g2-2g4---L~--------L\----7-9-|
-------------------------/9-----|
--------------------------------|
--------------------------------|
--------------------------------|


  S   S  S  S   Q      E.    S  T   T   T   T   S  S  
-----------------------------------------------------|
-----------------------------------------------------|
--9s-11-11-11~--L~-----Ls---14-13h-14p-13h-14s-11s-9-|
-----------------------------------------------------|
-----------------------------------------------------|
-----------------------------------------------------|
-----------------------------------------------------|


  S   E   T   T   Q      E.    S  E.  S  
----------------------------------------|
----------------------------------------|
--9s-11---Ls-14p-11~-----L~----L\-------|
--------------------------------------9-|
----------------------------------------|
----------------------------------------|
----------------------------------------|


                              |--3--|            
    S   E   S   S  S S S S E  T  T  T  S S S  S  
------------------------------------------------|
------------------------------------------------|
--<>9s-11--11~--L~-9---7-L-9--7h-9p-7s-6-7-6s-4-|
------------------------------------------------|
------------------------------------------------|
------------------------------------------------|
------------------------------------------------|


  S E.  Q     E   E    E   S S    W                   W                 
---------------------------x-x-|-------------------|-------------------|
---------------------------x-x-|-------------------|-------------------|
--2-4---4~----L~--4/-----------|-------------------|-------------------|
-------------------------------|-------------------|-------------------|
-------------------------------|-------------------|-------------------|
-------------------------------|-------------------|-------------------|
----------------------12\------|-------------------|-------------------|


                                                               PM PM PM     
  W                   W                   E      E   Q    S  S S  S  E  E   
-------------------|-------------------|--------------------10-------9-----|
-------------------|-------------------|---------------------7-------x-----|
-------------------|-------------------|-----------------------------6-----|
-------------------|-------------------|-----------------------------7--7--|
-------------------|-------------------|-----------------------------------|
-------------------|-------------------|-------------7----L----0--0--------|
-------------------|-------------------|-----12g17\------------------------|


                                               |--3--|         
  Q    E  E     E   E    E    E      E  Q.     E  E  E  E.  S  
----------------------------------|-----0------L--0--0--0---0-|
----------------------------------|--7------------0--0--0---0-|
----------------------------------|--9------------------------|
-------------9g14\----------------|---------------------------|
--------------------4s--12/-------|---------------------------|
-------7--7------------------19\--|---------------------------|
----------------------------------|---------------------------|


                            |--6-| |--6-| |--6-| |--6-|  
  T  S T S. T T  T T T S. T S  S S S  S S S  S S S  S S  
--0----0-0----0----0-0-0----0----0-0----0-0----0-0----0-|
--5p-0-0-7p-0-5p-0-0-0-7p-0-5p-0-0-5p-0-0-5p-0-0-7p-0-0-|
--------------------------------------------------------|
--------------------------------------------------------|
--------------------------------------------------------|
--------------------------------------------------------|
--------------------------------------------------------|


  |--6-| |--6-|      |--3-| |--3-|                
  S  S S S  S S S  S S  S S S  S S S  S S S  S S  
--0----0-0----0-0----0----0-L----0-0----0-0----0-|
--5p-0-0-7p-0-0-5p-0-7p-0-5-Lp-0-0-5p-0-0-5p-0-0-|
-------------------------------------------------|
-------------------------------------------------|
-------------------------------------------------|
-------------------------------------------------|
-------------------------------------------------|


  |--3-|      |--3-|           |-3-|      |--3-|                           
  S  S S S  S S  S S S  S S S  S S S  S S S  S S    E.  S H        S E  S  
--0----0-0----0----0-0----0-0----0-0----0-2p-0---|--0-------------------0-|
--5p-0-0-5h-7-5p-0-0-5h-7-5-5p-0-7-7p-0-0-0----3-|--x---------------------|
-------------------------------------------------|--2---2-L--------L-2--L-|
-------------------------------------------------|------0-L--------L------|
-------------------------------------------------|------------------------|
-------------------------------------------------|------------------------|
-------------------------------------------------|------------------------|


                W         W                   W                 
  H        E    Q.        W                   W                 
--L--------L--<>0------|--L----------------|--L----------------|
-----------------------|-------------------|-------------------|
--L--------L----L------|-------------------|-------------------|
-----------------------|-------------------|-------------------|
-----------------------|-------------------|-------------------|
-----------------------|-------------------|-------------------|
-----------------------|-------------------|-------------------|


  W        W              PM PM                       
  H        Q.      E      E  E  E  S S S S S S Q      
--L--------L-----------|-----------------------------|
-----------------------|-----------------------------|
-----------------------|-----------------------------|
-----------------------|-----------------------------|
-----------------------|-----------------------------|
-----------------------|-------------------5-5-5~----|
------------------12\--|--0--0--x----x---0-----------|


  PM PM                 W       PM                    W     
  E  E  S S S S S S S S Q       Q    E  S S S S S S   Q     
-----------------------------|-----------------------------|
-----------------------------|-----------------------------|
-----------------------------|-----------------------------|
-----------------------------|-----------------------------|
-----------------------------|-----------------------------|
--------7-----------5---5----|------------------5---<>5----|
--0--0----0---0---0---0------|--0----x----x---0---0--------|


                                                  W     
  E  E  S S S S S S S S Q       S S S S Q    Q    Q     
-----------------------------|-------------------------|
-----------------------------|-------------------------|
-----------------------------|-------------------------|
-----------------------------|-------------------------|
-----------------------------|----x--------------------|
--------7--------------------|------x-x-x---------5----|
--0-------0-0-0---0-0-0------|-------------------------|


  PM PM   PM PM PM PM   PM PM PM PM PM PM    
  S  S  S S  E  S  S  S S  S  S  S  S  S  S  
--------------------------------------------|
--------------------------------------------|
--------------------------------------------|
--------------------------------------------|
------------------------------------------9-|
--5--7----x--x--x--7----7--x--x--x--x--5----|
--------------------------------------------|


                      NH  NH  NH   NH      NH                
  E  E  S S S S S S   S   S   E    E       W                 
--------------------------------------|---------------------|
--------------------------------------|---------------------|
------------------------<>7-<>L-------|---------------------|
--------------------<>7---------------|---------------------|
--------------9---x--------------<>7--|--<>L----------------|
--x--x--x-x-x-------------------------|---------------------|
--------------------------------------|---------------------|


  W                    W                 6x  W                  
-------------------||--------------------||-------------------||
-------------------||--------------------||-------------------||
-------------------||--------------------||-------------------||
-------------------||--------------------||-------------------||
-------------------||--------------------||-------------------||
-------------------||--------------------||-------------------||
-------------------||--------------------||-------------------||




Duration Legend
---------------
W - whole
H - half
Q - quarter
E - 8th
S - 16th
T - 32nd
X - 64th
. - note dotted
|-n-|  - n-tuplets


Tablature Legend
----------------
L - tied note
x - dead note
g - grace note
(n) - ghost note
> - accentuded note
NH - natural harmonic
AH - artificial harmonic
TH - tapped harmonic
SH - semi harmonic
PH - pitch harmonic
h - hammer on
p - pull off
b - bend
br - bendRelease
pb - preBend
pbr - preBendRelease
brb - bendReleaseBend
\n/ - tremolo bar dip
\n - tremolo bar dive
-/n - tremolo bar Release up
/n\ - tremolo bar inverted dip
/n - tremolo bar return
-\n - tremolo bar Release down
S - shift slide
s - legato slide
/ -  slide into from below or out of upwards
\ -  slide into from above or out of downwards
~ - vibrato
W - wide vibrato
tr - trill
TP - tremolo picking
T - tapping
S - slap
P - pop
< - fade in
^ - brush up
v - brush down
Добавлено: 23.02.2012
Другие материалы по этой песне:

Страница создана 23.02.2012
http://primanota.ru/joe-satriani/searching-chords.htm
Привет, Гость.
Предлагаем пройти революционный курс по гитаре.
Подарок от PrimaNota.Ru, забирай!