PrimaNota.ru - самый крупный в мире бесплатный архив песенных текстов, аккордов, табулатур и нот


Joe Satriani - Love Thing - аккорды и текст, таба, бас-таба, видео

Регистрация Запомнить меня
Войти через:  Facebook Google Twitter Vk Yandex Mail.ru

Joe Satriani - Love Thing - аккорды и текст, таба, бас-таба, видео

Печатать
Просмотров: 273
Авторы музыки: Joe Satriani

Love Thing
Joe Satriani
Backround 1
E---0--0--0-----4--4-----2--2-------------------------------------------
B---0--0--0-----5--5-----0--0-------------------------------------------
G---4--4--4-----4--4-----4--4-------------------------------------------
D---4--4--4-----4--4-----4--4-------------------------------------------
A-----------------------------------------------------------------------
E-----------------------------------------------------------------------
 

Backround 2
E-----------------------------------------------------------------------
B-----------------------------------------------------------------------
G---9--9--8-----6--6-----4--4-------------------------------------------
D-----------------------------------------------------------------------
A-----------------------------------------------------------------------
E-----------------------------------------------------------------------





Lead- with heavy wah and distortion
E-----------------------------------------------------------------------
B-----------------------------------------------------------------------
G-----------------------------------------------------------------------
D---------------------2/4\2---------------------------------------------
A------------------2---------2--2-----------2--4--6^--(6)--4\2--2-------
E-----------------------------------------------------------------------



E-----------------------------------------------------------------------
B-----------------------------------------------------------------------
G----------------------------------------------------6--6--4--4---------
D------------2/4\2--------2--2-----------6--6--7--7---------------------
A---------2---------4--2------------------------------------------------
E-----------------------------------------------------------------------




Solo 1
E------------------7-----5--4--2--4^--(4)--2--4--0--------------4-------
B-----------------------------------------------------------------------
G-----------------------------------------------------------------------
D-----------------------------------------------------------------------
A-----------------------------------------------------------------------
E-----------------------------------------------------------------------



E---4--2--0-----------------------7-----5--4--2--4^--(4)--2--0-----0----
B------------2--0-----------------------------------------------2-------
G------------------1--4-------------------------------------------------
D-----------------------------------------------------------------------
A-----------------------------------------------------------------------
E-----------------------------------------------------------------------



E---4--4--7---------/9-----11-----7-------------------------------------
B------------7--5-------------------------------------------------------
G-----------------------------------------------------------------------
D-----------------------------------------------------------------------
A-----------------------------------------------------------------------
E-----------------------------------------------------------------------


back to the Lead again
E-------------12--14--12------------------------------------------------
B---------12--------------12--------------------------------------------
G--------------------------------------4--6--8^--(8)--6--4--4-----------
D-----------------------------------------------------------------------
A-----------------------------------------------------------------------
E-----------------------------------------------------------------------


Solo 2
E----------------------------------19-----17--16--14-----12--14--16-----
B-----------------------------------------------------------------------
G-----------------------------------------------------------------------
D---------2/4\2--------2------------------------------------------------
A------2---------4--2---------------------------------------------------
E-----------------------------------------------------------------------



E---------19--19-----17--16--14-----12--14------------------------------
B-------------------------------------------16^--(16)-----12--14--------
G-----------------------------------------------------------------------
D-----------------------------------------------------------------------
A-----------------------------------------------------------------------
E-----------------------------------------------------------------------




I don't feel like tabbing any more of it, just stay in this key:

E-----------------------9--11--12---------------------------------------
B------------9--10--12--------------------------------------------------
G-----9--11-------------------------------------------------------------
D-----------------------------------------------------------------------
A-----------------------------------------------------------------------
E-----------------------------------------------------------------------
Добавлено: 29.09.2013
Другие материалы по этой песне:

Страница создана 29.02.2012
http://primanota.ru/joe-satriani/love-thing-chords.htm
Привет, Гость.
Предлагаем пройти революционный курс по гитаре.
Подарок от PrimaNota.Ru, забирай!