PrimaNota.ru - самый крупный в мире бесплатный архив песенных текстов, аккордов, табулатур и нот


Joe Satriani - Ride - текст песни, таба, видео

Регистрация Запомнить меня
Войти через:  Facebook Google Twitter Vk Yandex Mail.ru

Joe Satriani - Ride - текст песни, таба, видео

Печатать
Просмотров: 204
                                      RIDE
                           As recorded by Joe Satriani
                  (From the 1989 Album FLYING IN A BLUE DREAM)

Words and Music by Joe Satriani
Transcribed by www.mikesguitarsite.co.uk

          B5               B5(type 2)               E9                   E13
      x 2 4 x x x          x 2 4 4 x x          x x x 7 7 7          x x x 7 7 8

         E5XII                 E5
     x x x x 12 12         0 2 2 x x x

 Intro
  Q=108
 4/4
  Gtrs I, II
                           ~~~~~~~~                           ~~~~~~
|----------|-----------------|-----------7---7-|-(7)-7-x--------------------|
|----------|-----------------|-----------7-7h9-|-(9)-7-x--------------------|
|---7------|-(7)-------------|-----------------|----------------------------|
|---7------|-(7)------9--7-9-|-(9)-------------|---------9--7-9-(9)--7h9--9-|
|----------|-----------------|-----------------|----------------------------|
|----------|-----------------|-----------------|----------------------------|


                               ~~~~~~~~
|--------------------------------|----------------------------------------|
|-------------10----10-9h10-9----|----------------10----10-9h10-9----9-9--|
|--9h11--(11)-11-11----9h11-9----|-----9h11--(11)-11-11-11-9h11-9----9-9--|
|--9-(9)--(9)---------------9--9-|-(9)-9-(9)--(9)------------------9------|
|--------------------------------|----------------------------------------|
|--------------------------------|----------------------------------------|


              ~~
|-------------------------|-----------------------------|
|-------------------------|-----0-(0)-------------------|
|-------------------------|---------------4-7p4-7p4-7p4-|
|---------------------3s4-|-(4)-----------4-7p4-7p4-7p4-|
|-------7-7-----------1s2-|-(2)-------5h7---------------|
|-x-0-4s5-4-0-4p0-(0)-----|-----------------------------|


|-----------------------------------|-----------------------------------------|
|--------------10-10-10-9h10-9------|------------------10-10----9h10-9----9-9-|
|-x--9h11-(11)-11-11-11-9h11-9------|-------9h11--(11)-11-11-11-9h11-9--7-9-9-|
|-x--9--------------------------[9]-|-([9])-9-(9)--(9)----------9---------9-9-|
|-----------------------------------|-----------------------------------------|
|-----------------------------------|-----------------------------------------|


  Gtr I
              ~~                            ~~~~~~~~
|-------------------------|---------7-------------------||
|-------------------------|-------7h9----7--------------||
|-------------------------|--------------7----------x---||
|---------------------3s4-|-(4)-------------9---[9]-x---||
|-------7-7-----------1s2-|-(2)-----------------------9-||
|-x-0-4s5-4-0-4p0-(0)-----|---------------------------7-||
|
| Gtr II
|             ~~                              ~~~~~~
|-------------------------|-----------7-(7)-------------||
|-------------------------|---------------------------x-||
|-------------------------|-----4-----7h=9--7---------x-||
|---------------------3s4-|-(4)-4-------------9-(9)---x-||
|-------7-7-----------1s2-|-(2)-------------------------||
|-x-0-4s5-4-0-4p0-(0)-----|-----------------------------||


 Verse 1
  Gtrs I, II
          PM----|                 PM----|
|-------------------------|--------------------------------|
|-------------------------|--------------------------------|
|-------------------------|--------------------------------|
|-----------------7h9---7h|=9------------------------------|
|-(9)-9-9-9-9-9-9-------7h|=9-9-9-9-9-9-9-9-9s12-12-12-12s=|
|-(7)-7-7-7-7-7-7-----7---|---7-7-7-7-7-7-7-7s10-10-10-10s=|


        PM----|
|-----------------------|--------------------------------------|
|-----------------------|-------------<7>----------------------|
|-----------------------|---------<7>--------------------------|
|-----------------------|-----<7>---------<7>-<7>-(<7>)--------|
|-7-7-7-7-7-7-7-7-7s5-5-|-(5)-----------------------------/9-9-|
|-5-5-5-5-5-5-5-5-5s3-3-|-(3)-----------------------------/7-7-|


          PM----|                  PM----|
|------------------------|--------------------------------|
|------------------------|--------------------------------|
|------------------------|--------------------------------|
|-----------------9--7-7-|-(7)-9--------------------------|
|-(9)-9-9-9-9-9-9-9--7-7-|-(7)-9-9-9-9-9-9-9s12-12-12-12s=|
|-(7)-7-7-7-7-7-7-7------|-------7-7-7-7-7-7s10-10-10-10s=|


  Gtr I
        PM----|
|-----------------------|-------------------------------------------||
|-----------------------|-------------<7>---------------------------||
|-----------------------|---------<7>-----------------------0-0-0-x-||
|-----------------------|-----<7>---------<7>-<7>-(<7>)-------------||
|-7-7-7-7-7-7-7-7-7s5-5-|-(5)---------------------------------------||
|-5-5-5-5-5-5-5-5-5s3-3-|-(3)---------------------------------------||
|
| Gtr II
|       PM----|
|-----------------------|-------------------------------------------||
|-----------------------|-----------------<7>-----------<7>---------||
|-----------------------|-------------<7>---------------------------||
|-----------------------|------0--<7>---------<7>-(<7>)-----------x-||
|-7-7-7-7-7-7-7-7-7-5-5-|-(5)-------------------------------------x-||
|-5-5-5-5-5-5-5-5-5-3-3-|-(3)-------------------------------5s==7---||


 Chorus
  Gtrs I, II
                                      ~~~
|---------------------------------------|
|------------------10----10-9h10-9------|
|-------9h11--(11)-11-11----9h11-9------|
|-------9-(9)--(9)---------------9----9-|
|---------------------------------------|
|---------------------------------------|
|
| Gtr IV
|-16b17----------------------------16---|
|-17b19----------------------------17---|
|---------------------------------------|
|---------------------------------------|
|---------------------------------------|
|---------------------------------------|


 ~~~~~~~~
|---------------------------------------------------------------------|
|----------------------------10----10---9h======10-9-------------9--9-|
|-------------9h====11--(11)-11-11-11---9h======11-9-------------9--9-|
|-(9)---------9-----(9)--(9)-------------------------------9----------|
|---------------------------------------------------------------------|
|---------------------------------------------------------------------|
|
|------------16b17----------------------------------------------------|
|-17b18r(17)-17b19====================(17tr20)r------20p17p==16-------|
|---------------------------------------------------------------16-16-|
|---------------------------------------------------------------------|
|---------------------------------------------------------------------|
|---------------------------------------------------------------------|


              ~~
|-------------------------|-----------------------------|
|-------------------------|-----0-(0)-------------------|
|-------------------------|---------------4-7p4-7p4-7p4-|
|---------------------3s4-|-(4)-----------4-7p4-7p4-7p4-|
|-------7-7-----------1s2-|-(2)-------5h7---------------|
|-x-0-4s5-4-0-4p0-(0)-----|-----------------------------|


|-----------------------------------------|
|------------------10-10-10-9h10-9--------|
|--x-----9h11-(11)-11-11-11-9h11-9--------|
|--x-----9----------------------------[9]-|
|-----------------------------------------|
|-----------------------------------------|
|
| Gtr IV
|-16b17----------------------------16-----|
|-17b19----------------------------17-----|
|-----------------------------------------|
|-----------------------------------------|
|-----------------------------------------|
|-----------------------------------------|


|-----------------------------------------------------------------------|
|-----------------------------10-10------9h======10-9-------------9--9--|
|--------------9h====11--(11)-11-11-11---9h======11-9-------7-----9--9--|
|-([9])--------9-----(9)--(9)------------9------------------------9--9--|
|-----------------------------------------------------------------------|
|-----------------------------------------------------------------------|
|
|-------------16b17-----------------------------------------------------|
|--17b18r(17)-17b19====================(17tr20)r------20p17p==16--------|
|----------------------------------------------------------------16-16--|
|-----------------------------------------------------------------------|
|-----------------------------------------------------------------------|
|-----------------------------------------------------------------------|


              ~~                       ~
|-------------------------|--------7-----------||
|-------------------------|------7h9-7---------||
|-------------------------|----------7---------||
|---------------------3s4-|-(4)--------9---x---||
|-------7-7-----------1s2-|-(2)------------x-9-||
|-x-0-4s5-4-0-4p0-(0)-----|------------------7-||


 Verse 2
  Gtrs I, II
          PM----|                 PM----|
|-------------------------|--------------------------------|
|-------------------------|--------------------------------|
|-------------------------|--------------------------------|
|-----------------7h9---7h|=9------------------------------|
|-(9)-9-9-9-9-9-9-------7h|=9-9-9-9-9-9-9-9-9s12-12-12-12s=|
|-(7)-7-7-7-7-7-7-----7---|---7-7-7-7-7-7-7-7s10-10-10-10s=|


        PM----|
|-----------------------|------------------------------------|
|-----------------------|-------------<7>--------------------|
|-----------------------|---------<7>------------------------|
|-----------------------|-----<7>---------<7>-<7>-(<7>)------|
|-7-7-7-7-7-7-7-7-7s5-5-|-(5)-----------------------------/9-|
|-5-5-5-5-5-5-5-5-5s3-3-|-(3)-----------------------------/7-|


          PM----|                  PM----|
|------------------------|--------------------------------|
|------------------------|--------------------------------|
|------------------------|--------------------------------|
|-----------------9--7-7-|-(7)-9--------------------------|
|-(9)-9-9-9-9-9-9-9--7-7-|-(7)-9-9-9-9-9-9-9s12-12-12-12s=|
|-(7)-7-7-7-7-7-7-7------|-------7-7-7-7-7-7s10-10-10-10s=|


  Gtr I
        PM----|
|-----------------------|------------------------------------------||
|-----------------------|-------------<7>--------------------------||
|-----------------------|---------<7>--------------------0--0--0-x-||
|-----------------------|-----<7>---------<7>-<7>-(<7>)------------||
|-7-7-7-7-7-7-7-7-7s5-5-|-(5)--------------------------------------||
|-5-5-5-5-5-5-5-5-5s3-3-|-(3)--------------------------------------||
|
| Gtr II
|       PM----|
|-----------------------|------------------------------------------||
|-----------------------|-----------------<7>--------------------x-||
|-----------------------|-------------<7>----------------2p=0----x-||
|-----------------------|-----<7>-<7>---------<7>-(<7>)--0-(0)---x-||
|-7-7-7-7-7-7-7-7-7-5-5-|-(5)--------------------------------------||
|-5-5-5-5-5-5-5-5-5-3-3-|-(3)--------------------------------------||


 Bridge
|--------------------------------------|
|-----9h10--(10)-9---x-9h10--9--x-9\---|
|-----9-(9)--(9)-9---x-9-(9)-9--x-9\---|
|-----9h11--(11)-9---x-9h11--9--x-9\---|
|--------------------------------------|
|-0------------------------------------|
|
|--------------------------------------|
|-----9h10--(10)-9-x-x-9h10--9----9--9-|
|-----9-(9)--(9)-9-x-x-9-(9)-9----9--9-|
|-----9h11--(11)-9-x-x-9h11--9--9------|
|-0-0----------------------------------|
|--------------------------------------|


|--------------------------------------------------|
|-----0----1p==0----0-12h=13----12-(12)---(12)\----|
|-----0-0--2p==0----0-12-(12)---12-(12)---(12)\----|
|-0-------------------12h=14----12-(12)---(12)\----|
|--------------------------------------------------|
|-3------------------------------------------------|
|
|--------------------------------------------------|
|-x-x---------12-12-x-12--12--x-12-----------------|
|-x-x-0---(0)-12-12-x-12--12--x-12------x--12---12-|
|-x-x---------12-12-x-12--12--x-12------x--12---12-|
|--------------------------------------------------|
|--------------------------------------------------|


|---------------------------------------------------|------2--(2)--6--6----6-------6--(6)---------|
|---2-----3-------2--------2h=3---------------------|------2--(2)--7--7-7--7----7--7--(7)----7--7-|
|-2----2--2-------2--2-----2-(2)-----2--------------|--------------6--6-6-------6---------6--6--6-|
|-2---------------------2--2h=4------2-------x------|---------------------------------------------|
|-0----------------------------------0-------0------|---------------------------------------------|
|-----------------------------------------------2-2-|---2-----------------------------------------|
|
|---------------------------------------------------|---------------------------------------------|
|----------------14-14----14-----14-14-(14)-15-14---|---------------------------------------------|
|-x-0-12s14-(14)-14-14----14-----14-14-(14)-14-14---|---------------------11-11-x-11-(11)---11-11-|
|-x---12s14-(14)----------14-----14-14-(14)---------|-\11-11-(11)-11-11-9-11-11-x-11-(11)-9-11-11-|
|----------------------12---------------------------|--\9--9--(9)--9--9-9--9--9-x--9--(9)-9--9--9-|
|---------------------------------------------------|---------------------------------------------|


|---------------------------------------------------||
|-----------------10---(10)b12================(10)r-||
|------------------9----(9)b11=================(9)r-||
|---------------------------------------------------||
|-4s=9----------------------------------------------||
|---------------------------------------------------||
|
|                                      ~~~~~~~
|---------------------------------------------------||
|---12----10---10-------10b12===(10)r-10-(10)-------||
|---(0)----9----9--------9b11====(9)r--9--(9)-------||
|------------x--------------------------------------||
|-------9----x-------9------------------------------||
|---------------------------------------------------||


 Chorus
  Gtrs I, II
                                      ~~~
|---------------------------------------|
|------------------10----10-9h10-9------|
|-------9h11--(11)-11-11----9h11-9------|
|-------9-(9)--(9)---------------9----9-|
|---------------------------------------|
|---------------------------------------|
|
| Gtr IV
|-16b17----------------------------16---|
|-17b19----------------------------17---|
|---------------------------------------|
|---------------------------------------|
|---------------------------------------|
|---------------------------------------|


 ~~~~~~~~
|---------------------------------------------------------------------|
|----------------------------10----10---9h======10-9-------------9--9-|
|-------------9h====11--(11)-11-11-11---9h======11-9-------------9--9-|
|-(9)---------9-----(9)--(9)-------------------------------9----------|
|---------------------------------------------------------------------|
|---------------------------------------------------------------------|
|
|------------16b17----------------------------------------------------|
|-17b18r(17)-17b19====================(17tr20)r------20p17p==16-------|
|---------------------------------------------------------------16-16-|
|---------------------------------------------------------------------|
|---------------------------------------------------------------------|
|---------------------------------------------------------------------|


              ~~
|-------------------------|-----------------------------|
|-------------------------|-----0-(0)-------------------|
|-------------------------|---------------4-7p4-7p4-7p4-|
|---------------------3s4-|-(4)-----------4-7p4-7p4-7p4-|
|-------7-7-----------1s2-|-(2)-------5h7---------------|
|-x-0-4s5-4-0-4p0-(0)-----|-----------------------------|


|-----------------------------------------|
|------------------10-10-10-9h10-9--------|
|--x-----9h11-(11)-11-11-11-9h11-9--------|
|--x-----9----------------------------[9]-|
|-----------------------------------------|
|-----------------------------------------|
|
| Gtr IV
|-16b17----------------------------16-----|
|-17b19----------------------------17-----|
|-----------------------------------------|
|-----------------------------------------|
|-----------------------------------------|
|-----------------------------------------|


|-----------------------------------------------------------------------|
|-----------------------------10-10------9h======10-9-------------9--9--|
|--------------9h====11--(11)-11-11-11---9h======11-9-------7-----9--9--|
|-([9])--------9-----(9)--(9)------------9------------------------9--9--|
|-----------------------------------------------------------------------|
|-----------------------------------------------------------------------|
|
|-------------16b17-----------------------------------------------------|
|--17b18r(17)-17b19====================(17tr20)r------20p17p==16--------|
|----------------------------------------------------------------16-16--|
|-----------------------------------------------------------------------|
|-----------------------------------------------------------------------|
|-----------------------------------------------------------------------|


  Gtr I
              ~~
|-------------------------|-----------------------------------------||
|-------------------------|-----------0---0--------0---0------0-----||
|-------------------------|-----4-(4)---4---2s=4-----------2----2s4-||
|---------------------3s4-|-(4)-4-(4)-------------------------------||
|-------7-7-----------1s2-|-(2)-------------------------------------||
|-x-0-4s5-4-0-4p0-(0)-----|-----------------------------------------||
|
| Gtr II
|             ~~
|-------------------------|-----------------------------------------||
|-------------------------|-------------0---------------------------||
|-------------------------|-----4-------4---2-(2)-(2)-(2)-(2)h4-----||
|---------------------3s4-|-(4)-4-----------------------------------||
|-------7-7-----------1s2-|-(2)-------------------------------------||
|-x-0-4s5-4-0-4p0-(0)-----|-----------------------------------------||


  Gtrs I, II
                                      ~~~
|---------------------------------------|
|------------------10----10-9h10-9------|
|-------9h11--(11)-11-11----9h11-9------|
|-------9-(9)--(9)---------------9----9-|
|---------------------------------------|
|---------------------------------------|
|
| Gtr IV
|-16b17----------------------------16---|
|-17b19----------------------------17---|
|---------------------------------------|
|---------------------------------------|
|---------------------------------------|
|---------------------------------------|


 ~~~~~~~~
|---------------------------------------------------------------------|
|----------------------------10----10---9h======10-9-------------9--9-|
|-------------9h====11--(11)-11-11-11---9h======11-9-------------9--9-|
|-(9)---------9-----(9)--(9)-------------------------------9----------|
|---------------------------------------------------------------------|
|---------------------------------------------------------------------|
|
|------------16b17----------------------------------------------------|
|-17b18r(17)-17b19====================(17tr20)r------20p17p==16-------|
|---------------------------------------------------------------16-16-|
|---------------------------------------------------------------------|
|---------------------------------------------------------------------|
|---------------------------------------------------------------------|


              ~~
|-------------------------|-----------------------------|
|-------------------------|-----0-(0)-------------------|
|-------------------------|---------------4-7p4-7p4-7p4-|
|---------------------3s4-|-(4)-----------4-7p4-7p4-7p4-|
|-------7-7-----------1s2-|-(2)-------5h7---------------|
|-x-0-4s5-4-0-4p0-(0)-----|-----------------------------|


|-----------------------------------------|
|------------------10-10-10-9h10-9--------|
|--x-----9h11-(11)-11-11-11-9h11-9--------|
|--x-----9----------------------------[9]-|
|-----------------------------------------|
|-----------------------------------------|
|
| Gtr IV
|-16b17----------------------------16-----|
|-17b19----------------------------17-----|
|-----------------------------------------|
|-----------------------------------------|
|-----------------------------------------|
|-----------------------------------------|


|-----------------------------------------------------------------------|
|-----------------------------10-10------9h======10-9-------------9--9--|
|--------------9h====11--(11)-11-11-11---9h======11-9-------7-----9--9--|
|-([9])--------9-----(9)--(9)------------9------------------------9--9--|
|-----------------------------------------------------------------------|
|-----------------------------------------------------------------------|
|
|-------------16b17-----------------------------------------------------|
|--17b18r(17)-17b19====================(17tr20)r------20p17p==16--------|
|----------------------------------------------------------------16-16--|
|-----------------------------------------------------------------------|
|-----------------------------------------------------------------------|
|-----------------------------------------------------------------------|


  Gtr III
|-------------------------|-------------------||
|-------------------------|-----------------0-||
|-------------------------|------------x\-----||
|-------------------------|------------x\-----||
|-------------------------|------------x\-----||
|-------------------------|--------\2---------||
|
| Gtrs I, II
|             ~~
|-------------------------|-------------------||
|-------------------------|-------------------||
|-------------------------|-----4-----(4)-----||
|---------------------3s4-|-(4)-4-----(4)-----||
|-------7-7-----------1s2-|-(2)-2-----(2)-----||
|-x-0-4s5-4-0-4p0-(0)-----|-------------------||


 Guitar Solo
  Gtr III
|---------------------------------------------------------|
|-x-15-------------(15)-------15----(15)------------------|
|-x-14b16==========(14)r----x---------------[14]b16-------|
|-x-------------------------------------------------------|
|---------------------------------------------------------|
|---------------------------------------------------------|
|
| Gtr II
|    PM
|----------------------------------------12---------------|
|-x--------12-12-x-------12----x-14-(14)------------15-12-|
|-x--------11-11-x--11---------x-----------------------11-|
|-x--------12-12-x--12------------------------------------|
|---------------------------------------------------------|
|----0----------------------------------------------------|
|
| Gtr I
| PM--------------------------|
|---------------------------------------------------------|
|---------------------------------------------------------|
|---------------------------------------------------------|
|---------------------------------7-----------x---------9-|
|---------------------------------5-----------x---------7-|
|-0--0------2--3-----4---------x--------------------------|


                                   ~~~~
|--------------------------------------------|
|-15--------15-(15)---15-----15--(15)--------|
|-14b16---------------14b16==14r-(14)--------|
|--------------------------------------------|
|--------------------------------------------|
|--------------------------------------------|
|
|--x----x--------7--7---------8----x--8--x-7-|
|--x----x--------7--7---------7----x--7--x-7-|
|--x----x--------7--7---------7----x--7--x-7-|
|--------------------------------------------|
|--------------------------------------------|
|---------0----------------------------------|
|
|  PM----------------------------|
|--------------------------------------------|
|--------------------------------------------|
|--------------------------------------------|
|-------------------------------------9--x-7-|
|-------------------------------------7--x-5-|
|--0------0------2-----3------4----x---------|


                 ~~~~~              ~~                   ~~
|--------------------------------------------12------------|
|-14p12-15b17==(15)r-----17--------15-----12----15p==12-15-|
|-14p12---------------------14pb16-------------------------|
|----------------------------------------------------------|
|----------------------------------------------------------|
|----------------------------------------------------------|
|
|--x--x----------7---7-------7------7-7-8----------7-----8-|
|--x--x----------7---7-------7------7-7-7----------7-----7-|
|--x--x----------7---7-------7------7-7-7----------7-----7-|
|----------------------------------------------------------|
|----------------------------------------------------------|
|--------0-------------------------------------------------|
|
|  PM---------------------------------|
|----------------------------------------------------------|
|----------------------------------------------------------|
|----------------------------------------------------------|
|---------------------------------------7----------x-----9-|
|---------------------------------------5----------x-----7-|
|--0-----0-------2-----3-----4--------x--------------------|


                                                       PM    ~~~~~~~~
|---------12-----------------------------------------------------------------|
|-(15)b17----15-12h15p12-----------------------------------------------------|
|------------------------14b16==(14)r(14)p12----14-12----12-12-(12)s====19---|
|--------------------------------------------14-------14---------------------|
|----------------------------------------------------------------------------|
|----------------------------------------------------------------------------|
|
|---x------------x----------------7-----------------7-----7--8------7-8------|
|---x------------x----------------7-----------------7-----7--7------7-7------|
|---x------------x----------------7-----------------7-----7--7------7-7------|
|----------------------------------------------------------------------------|
|----------------------------------------------------------------------------|
|---------------------------------------------0------------------------------|
|
|   PM---------------------------------------------------|
|----------------------------------------------------------------------------|
|----------------------------------------------------------------------------|
|----------------------------------------------------------------------------|
|------------------------------------------------------------7------x-9------|
|------------------------------------------------------------5------x-7------|
|---0------------0----------------2-----------3-----4-----x------------------|


|-(0)---15b17==(15)r-15b16---12-------12-------12-15b17---15b16==|
|-(0)---------------------------15b17----15b17-------------------|
|-(0)------------------------------------------------------------|
|-(0)------------------------------------------------------------|
|----------------------------------------------------------------|
|----------------------------------------------------------------|
|
|--x--x----------7----7-------8--------8--8--------8----7--------|
|--x--x----------7----7-------7--------7--7--------7----7--------|
|--x--x----------7----7-------7--------7--7--------7----7--------|
|----------------------------------------------------------------|
|----------------------------------------------------------------|
|--------0-------------------------------------------------------|
|
|  PM---------------------------------|
|----------------------------------------------------------------|
|----------------------------------------------------------------|
|----------------------------------------------------------------|
|-----------------------------------------7--------x----9--------|
|-----------------------------------------5--------x----7--------|
|--0-----0-------2---------3--4--------x-------------------------|


                              ~~~~~
|-(15)r-12-----15b17-15b16==(15)r--12-------12-15---18p15p12----12-|
|----------15\------------------------15b16------------------15----|
|------------------------------------------------------------------|
|------------------------------------------------------------------|
|------------------------------------------------------------------|
|------------------------------------------------------------------|
|
|---x-----------7-----7-------8-----7--8----------7-----7----------|
|---x-----------7-----7-------7-----7--7----------7-----7----------|
|---x-----------7-----7-------7-----7--7----------7-----7----------|
|------------------------------------------------------------------|
|--------7p=5------------------------------------------------------|
|------------------------------------------------------------------|
|
|   PM-----------------------------|
|------------------------------------------------------------------|
|------------------------------------------------------------------|
|------------------------------------------------------------------|
|--------------------------------------9----------x-----7----------|
|--------------------------------------7----------x-----5----------|
|---0----0------2-----3-------4-----x------------------------------|


|-16h17p16p12-15h16p15p12-16p12h15h16p15p12-16p12h14h15p14p12-------------12h14h15p14p12-----------|
|-------------------------------------------------------------15p12h14p12----------------15-12h14h=|
|--------------------------------------------------------------------------------------------------|
|--------------------------------------------------------------------------------------------------|
|--------------------------------------------------------------------------------------------------|
|--------------------------------------------------------------------------------------------------|
|
|--x-----------------------7-----------x-----x-----7-----------7-----8-----------7-----8-----------|
|--x-----------------------7-----------x-----x-----7-----------7-----7-----------7-----7-----------|
|--x-----------------------7-----------x-----x-----7-----------7-----7-----------7-----7-----------|
|--------------2-----------------------------------------------------------------------------------|
|--------------2-----------------------------------------------------------------------------------|
|--------------0-----------------------------------------------------------------------------------|
|
|  PM---------------------------------------------------------|
|--------------------------------------------------------------------------------------------------|
|--------------------------------------------------------------------------------------------------|
|--------------------------------------------------------------------------------------------------|
|--------------------------------------------------------------------7-----------x-----9-----------|
|--------------------------------------------------------------------5-----------x-----7-----------|
|--0-----------0-----------2-----------3-----------4-----------x-----------------------------------|


                                             ~~
|----------------------------------------------------------------|
|-15p14p12--------------15---------------------x-----(x)\---x\---|
|----------14b16==(14)r----14b16r(14)p12----12-x-----(x)\---x\---|
|----------------------------------------14-----------------x\---|
|----------------------------------------------------------------|
|----------------------------------------------------------------|
|
|--x-----x------------------7----------x-----8---7-8------x-8--8-|
|--x-----x------------------7----------x-----7---7-7------x-7--7-|
|--x-----x------------------7----------x-----7---7-7------x-7--7-|
|----------------------------------------------------------------|
|----------------------------------------------------------------|
|-------------------0--------------------------------------------|
|
|  PM--------------------------------------------|
|----------------------------------------------------------------|
|----------------------------------------------------------------|
|----------------------------------------------------------------|
|--------------------------------------------------7------x-9----|
|--------------------------------------------------5------x-7----|
|--0----------------0-------2----------3-----4---x---------------|


|-(0)-----0---------0-------0-------0-----0-----|
|-(0)-3b4---0-3b4p0---3b4p0---3b4p0---3b4-0-3b4-|
|-----------------------------------------------|
|-----------------------------------------------|
|-----------------------------------------------|
|-----------------------------------------------|
|
|--x--x-------7-----x-----7---7---8---x---8-----|
|--x--x-------7-----x-----7---7---7---x---7-----|
|--x--x-------7-----x-----7---7---7---x---7-----|
|-----------------------------------------------|
|-----------------------------------------------|
|---------0-------------------------------------|
|
|  PM-------------------------|
|-----------------------------------------------|
|-----------------------------------------------|
|-----------------------------------------------|
|---------------------------------7---x---9-----|
|---------------------------------5---x---7-----|
|--0------0---2-----3-----4---x-----------------|


|-0h3p0-----------0h3p0---0h3p0---0h3p0---0h3p0---0h==4p|
|-------3p0h3p0h3-------3-------3-------3-0-----3-------|
|-------------------------------------------------------|
|-------------------------------------------------------|
|-------------------------------------------------------|
|-------------------------------------------------------|
|
|-x-----------7-------7-----8-----7---8-----8---8p==7---|
|-x-----------7-------7-----7-----7---7-----7---7---7---|
|-x-----------7-------7-----7-----7---7-----7---7---7---|
|-------------------------------------------------------|
|-------------------------------------------------------|
|-------0-----------------------------------------------|
|
| PM------------------------------|
|-------------------------------------------------------|
|-------------------------------------------------------|
|-------------------------------------------------------|
|-------------------------------------9-----x---7-------|
|-------------------------------------7-----x---5-------|
|-0-----0-----2-------3-----4-----x---------------------|


|-3-------0h2p0----0h4p0-3p0-2p0-3p0----0------------------------|
|---0h3-------0p-4--------------------3---3p0h3p0---0------------|
|-------------------------------------------------3-----3p0-3----|
|----------------------------------------------------------------|
|----------------------------------------------------------------|
|----------------------------------------------------------------|
|
|-x-----x----------7-----7-------7------7-----8-------x-8--------|
|-x-----x----------7-----7-------7------7-----7-------x-7--------|
|-x-----x----------7-----7-------7------7-----7-------x-7--------|
|----------------------------------------------------------------|
|----------------------------------------------------------------|
|-----------0----------------------------------------------------|
|
| PM------------------------------------|
|----------------------------------------------------------------|
|----------------------------------------------------------------|
|----------------------------------------------------------------|
|---------------------------------------------7-------x-9--------|
|---------------------------------------------5-------x-7--------|
|-0---------0------2-----3-------4------x------------------------|


                         \2
                     ~~~
|------------------------------------x-x-|
|------------------------------------x-x-|
|-3-3p2p0-3-2-3p2p0-----[0]----------x-x-|
|-------------------[2]------------------|
|----------------------------------------|
|----------------------------------------|
|
|-x-x---------7---7------8---x-8--x------|
|-x-x---------7---7------7---x-7--x------|
|-x-x---------7---7------7---x-7--x------|
|-----------------------------------10p7-|
|----------------------------------------|
|-------0--------------------------------|
|
| PM-------------------------|
|----------------------------------------|
|----------------------------------------|
|----------------------------------------|
|------------------------------7--x--9---|
|------------------------------5--x--7---|
|-0-----0-----2---3------4---x-----------|


|-x-x-15b17---15b16-12---------------------------|
|-x-x------------------15-12---------------------|
|-x-x------------------------14b16r(14)p12-0-----|
|--------------------------------------------12s=|
|------------------------------------------------|
|------------------------------------------------|
|
|-x-x-------7--7-----8-----7--8----------x-8--8--|
|-x-x-------7--7-----7-----7--7----------x-7--7--|
|-x-x-------7--7-----7-----7--7----------x-7--7--|
|------------------------------------------------|
|------------------------------------------------|
|------0-----------------------------------------|
|
| PM----------------------|
|------------------------------------------------|
|------------------------------------------------|
|------------------------------------------------|
|-----------------------------7----------x-9-----|
|-----------------------------5----------x-7-----|
|-0----0----2--3-----4-----x---------------------|


                        ~~~~~
|---------------------------------------------|--------17b19r(17)b19====(17)r--17b19====(17)r-17b19----|
|---------------------------------------------|--------------------------------------------------------|
|------12----9--------------------------------|-<12>---------------------------------------------------|
|-9-11----11---12-9---------------------------|-<12>---------------------------------------------------|
|-------------------12-10b12-----10s9s2s==11\-|--------------------------------------------------------|
|---------------------------------------------|--------------------------------------------------------|
|
|-x--x-------7----7-----8----x-7----7---x--7--|---x--x---------7----------8-----x-----7--------x----7\-|
|-x--x-------7----7-----7----x-7----7---x--7--|---x--x---------7----------7-----x-----7--------x----7\-|
|-x--x-------7----7-----7----x-7----7---x--7--|---x--x---------7----------7-----x-----7--------x----7\-|
|---------------------------------------------|--------------------------------------------------------|
|---------------------------------------------|--------------------------------------------------------|
|-------0-------------------------------------|---------0----------------------------------------------|
|
| PM---------------------------|                  PM---------------------------|
|---------------------------------------------|--------------------------------------------------------|
|---------------------------------------------|--------------------------------------------------------|
|---------------------------------------------|--------------------------------------------------------|
|-----------------------------------9---x--7--|---------------------------------------7--------x----9--|
|-----------------------------------7---x--5--|---------------------------------------5--------x----7--|
|-0-----0----2----3-----4------x--------------|---0-----0------2------3---4-----x----------------------|


                                                           ~~~~~~
|-17pb18-17pb19-17pb18-17pb19-17pb18-17pb19-17pb18-17pb19-17b19====(17)r\-----------||
|-----------------------------------------------------------------------------------||
|-------------------------------------------------------------------------xs19-(0)--||
|-------------------------------------------------------------------------xs19-(0)--||
|-------------------------------------------------------------------------x---------||
|-----------------------------------------------------------------------------------||
|
|  PM---------------------------------------|
|-----------------------------------------------------------------------------------||
|-----------------------------------------------------------------------------------||
|-----------------------------------------------------------------------------------||
|--2-------------2-------------2-------------2-------------2-----2--------2---------||
|--2-------------2-------------2-------------2-------------2-----2--------2---------||
|--0-------------0-------------0-------------0-------------0-----0--------0---------||
|
|  PM---------------------------------------|
|-----------------------------------------------------------------------------------||
|-----------------------------------------------------------------------------------||
|-----------------------------------------------------------------------------------||
|--2-------------2-------------2-------------2-------------2-----2--------2---------||
|--2-------------2-------------2-------------2-------------2-----2--------2---------||
|--0-------------0-------------0-------------0-------------0-----0--------0---------||


       \1____/             /
|-x---22---(22)----(22)---22---|
|-x-x-22---(22)----(22)---22---|
|-x-x--0----(0)-----(0)--------|
|---x--------------------------|
|------------------------------|
|------------------------------|
|
| Gtrs I, II
|------------------------------|
|--------------------------5-5-|
|---------------4---(4)----4-4-|
|-4-4--------4----------4------|
|-2-2--------------------------|
|------------------------------|


    |
                               ~~
|-(22)---22b24==(22)r-22b23---19-----22b23==(22)r\-|
|-(22)---------------------------------------------|
|--------------------------------------------------|
|--------------------------------------------------|
|--------------------------------------------------|
|--------------------------------------------------|
|
|--------------------------------------------------|
|--(5)----5------(5)---4---------------------------|
|--(4)-2--4------(4)---4-------4-4-4--4------------|
|------2--2------(2)---4----4--4-4-4--4-------4----|
|------------------------------2-2-2--2-------2----|
|--------------------------------------------------|


|-------10-(10)b11==(10)r-7---10p7------7------------------|
|-(0)-----------------------7------10p7---7----------------|
|-(0)---------------------------------------9b11r(9)p7-9-7-|
|----------------------------------------------------------|
|----------------------------------------------------------|
|----------------------------------------------------------|
|
|                              ~~~
|----------------------------------------------------------|
|----------------------------------------------------------|
|----------------------------------------------------------|
|----------------------------------------------------x-4---|
|--------7---7---------------------------------------x-2---|
|--0--4s=5---4------------0----4------------0----(0)-------|


                          ~
|----------------------------------------|
|------------------------------------9-7-|
|--9--9-7b8----9--7---7-7------------9-7-|
|-----------9-------9-----9--------------|
|-------------------------------(0)------|
|----------------------------------------|
|
|------------------------------------0---|
|------------------------------------0---|
|-------4-----(4)-----4p3p2-1s2s=1s4-----|
|-(4)---4-----(4)------------------------|
|-(2)------------------------------------|
|----------------------------------------|


|---7--------------10------(10)----------10-------10-|
|-9-9p7-7--9--10-9--9b9.5===(9)r-7-9---9--9b9.5------|
|---7------7---7-7---------------7-7-7---------------|
|----------------------------------------------------|
|----------------------------------------------------|
|----------------------------------------------------|
|
|----------------------------------------------------|
|----------------------------------------------------|
|----------------------------------------------------|
|---x-4---(4)----4----------(4)----4---4-----------4-|
|---x-2---(2)--2-2----------(2)--2-2---2--------2--2-|
|----------------------------------------------------|


                             ~~~~~~
|-10----10---10---10-----7-----------------|
|--9-----9----9----9---9-7-7---------------|
|-----7----7----7----7---7---------7b7.5---|
|----------------------------9-(9)---------|
|------------------------------------------|
|------------------------------------------|
|
|------------------------------------------|
|------------------------------------------|
|-------------4--------2-----2h=4--4-----4-|
|-(4)----4---------4---------------4-----4-|
|-(2)-2------------------------------------|
|------------------------------------------|


|------------7--------7--------7---------7---------7-|
|----------7--------7--------7--------7----------7---|
|-7-9b11-------9b11-----9b11-----9b11-------9b11-----|
|----------------------------------------------------|
|----------------------------------------------------|
|----------------------------------------------------|
|
|                            ~
|----------------------------------------------------|
|----------------------------------------------------|
|-x--------------------------------------------------|
|-x-----------------------------------------x----4---|
|----------7---7----------------------------x----2---|
|---0----4s5---4------0------4--------0-(0)----------|


                                          ~~~
|-11s19--22b24==(22)r-22b23==(22)r-19-22-19--------(19)\-||
|--------------------------------------------------------||
|--------------------------------------------------------||
|--------------------------------------------------------||
|--------------------------------------------------------||
|--------------------------------------------------------||
|
|--------------------------------------------------------||
|--------------------------------------------------------||
|-----------------4----------------------------------x---||
|----(4)--4-------4----------------------------------x---||
|----(2)----------------------------2-----5s16-------x---||
|----------------------------------------------16\-------||


 Verse 3
  Gtrs I, II
        PM----|                 PM----|
|-----------------------|--------------------------------|
|-----------------------|--------------------------------|
|-----------------------|--------------------------------|
|---------------7h9---7h|=9------------------------------|
|-9-9-9-9-9-9-9-------7h|=9-9-9-9-9-9-9-9-9s12-12-12-12s=|
|-7-7-7-7-7-7-7-----7---|---7-7-7-7-7-7-7-7s10-10-10-10s=|


        PM----|
|-----------------------|-------------<7>-----<12>-(<12>)-------|
|-----------------------|-------------<7>-----------------------|
|-----------------------|---------<7>---------------------------|
|-----------------------|-----<7>---------<7>-------------------|
|-7-7-7-7-7-7-7-7-7s5-5-|-(5)-------------------------------9-9-|
|-5-5-5-5-5-5-5-5-5s3-3-|-(3)-------------------------------7-7-|


          PM----|                  PM----|
|------------------------|--------------------------------|
|------------------------|--------------------------------|
|------------------------|--------------------------------|
|-----------------9--7-7-|-(7)-9--------------------------|
|-(9)-9-9-9-9-9-9-9--7-7-|-(7)-9-9-9-9-9-9-9s12-12-12-12s=|
|-(7)-7-7-7-7-7-7-7------|-------7-7-7-7-7-7s10-10-10-10s=|


  Gtr I
        PM----|
|-----------------------|-------------------------------------------------||
|-----------------------|-----------------<7>-----------------------------||
|-----------------------|-------------<7>------------------------0--0-0-x-||
|-----------------------|-----<7>-----------------<7>-<7>-(<7>)-----------||
|-7-7-7-7-7-7-7-7-7s5-5-|-(5)---------------------------------------------||
|-5-5-5-5-5-5-5-5-5s3-3-|-(3)---------------------------------------------||
|
| Gtr II
|       PM----|
|-----------------------|-----------------<7>--------------<7>------------||
|-----------------------|---------------------<7>-------------------------||
|-----------------------|---------<7>----------------------------0h12p0-0-||
|-----------------------|-----------------------------<7>-----------------||
|-7-7-7-7-7-7-7-7-7-5-5-|-(5)---------------------------------------------||
|-5-5-5-5-5-5-5-5-5-3-3-|-(3)---------------------------------------------||


 Chorus
  Gtrs I, II
                                      ~~~
|---------------------------------------|
|------------------10----10-9h10-9------|
|-------9h11--(11)-11-11----9h11-9------|
|-------9-(9)--(9)---------------9----9-|
|---------------------------------------|
|---------------------------------------|
|
| Gtr IV
|-16b17----------------------------16---|
|-17b19----------------------------17---|
|---------------------------------------|
|---------------------------------------|
|---------------------------------------|
|---------------------------------------|


 ~~~~~~~~
|---------------------------------------------------------------------|
|----------------------------10----10---9h======10-9-------------9--9-|
|-------------9h====11--(11)-11-11-11---9h======11-9-------------9--9-|
|-(9)---------9-----(9)--(9)-------------------------------9----------|
|---------------------------------------------------------------------|
|---------------------------------------------------------------------|
|
|------------16b17----------------------------------------------------|
|-17b18r(17)-17b19====================(17tr20)r------20p17p==16-------|
|---------------------------------------------------------------16-16-|
|---------------------------------------------------------------------|
|---------------------------------------------------------------------|
|---------------------------------------------------------------------|


              ~~
|-------------------------|-----------------------------|
|-------------------------|-----0-(0)-------------------|
|-------------------------|---------------4-7p4-7p4-7p4-|
|---------------------3s4-|-(4)-----------4-7p4-7p4-7p4-|
|-------7-7-----------1s2-|-(2)-------5h7---------------|
|-x-0-4s5-4-0-4p0-(0)-----|-----------------------------|


|-----------------------------------------|
|------------------10-10-10-9h10-9--------|
|--x-----9h11-(11)-11-11-11-9h11-9--------|
|--x-----9----------------------------[9]-|
|-----------------------------------------|
|-----------------------------------------|
|
| Gtr IV
|-16b17----------------------------16-----|
|-17b19----------------------------17-----|
|-----------------------------------------|
|-----------------------------------------|
|-----------------------------------------|
|-----------------------------------------|


|-----------------------------------------------------------------------|
|-----------------------------10-10------9h======10-9-------------9--9--|
|--------------9h====11--(11)-11-11-11---9h======11-9-------7-----9--9--|
|-([9])--------9-----(9)--(9)------------9------------------------9--9--|
|-----------------------------------------------------------------------|
|-----------------------------------------------------------------------|
|
|-------------16b17-----------------------------------------------------|
|--17b18r(17)-17b19====================(17tr20)r------20p17p==16--------|
|----------------------------------------------------------------16-16--|
|-----------------------------------------------------------------------|
|-----------------------------------------------------------------------|
|-----------------------------------------------------------------------|


              ~~                       ~~~~~
|-------------------------|--------7---------||
|-------------------------|------7h9-7-------||
|-------------------------|----------7-------||
|---------------------3s4-|-(4)--------9--9--||
|-------7-7-----------1s2-|-(2)--------------||
|-x-0-4s5-4-0-4p0-(0)-----|------------------||


  Gtrs I, II
                                      ~~~
|---------------------------------------|
|------------------10----10-9h10-9------|
|-------9h11--(11)-11-11----9h11-9------|
|-------9-(9)--(9)---------------9----9-|
|---------------------------------------|
|---------------------------------------|
|
| Gtr IV
|-16b17----------------------------16---|
|-17b19----------------------------17---|
|---------------------------------------|
|---------------------------------------|
|---------------------------------------|
|---------------------------------------|


 ~~~~~~~~
|---------------------------------------------------------------------|
|----------------------------10----10---9h======10-9-------------9--9-|
|-------------9h====11--(11)-11-11-11---9h======11-9-------------9--9-|
|-(9)---------9-----(9)--(9)-------------------------------9----------|
|---------------------------------------------------------------------|
|---------------------------------------------------------------------|
|
|------------16b17----------------------------------------------------|
|-17b18r(17)-17b19====================(17tr20)r------20p17p==16-------|
|---------------------------------------------------------------16-16-|
|---------------------------------------------------------------------|
|---------------------------------------------------------------------|
|---------------------------------------------------------------------|


              ~~
|-------------------------|-----------------------------|
|-------------------------|-----0-(0)-------------------|
|-------------------------|---------------4-7p4-7p4-7p4-|
|---------------------3s4-|-(4)-----------4-7p4-7p4-7p4-|
|-------7-7-----------1s2-|-(2)-------5h7---------------|
|-x-0-4s5-4-0-4p0-(0)-----|-----------------------------|


|-----------------------------------------|
|------------------10-10-10-9h10-9--------|
|--x-----9h11-(11)-11-11-11-9h11-9--------|
|--x-----9----------------------------[9]-|
|-----------------------------------------|
|-----------------------------------------|
|
| Gtr IV
|-16b17----------------------------16-----|
|-17b19----------------------------17-----|
|-----------------------------------------|
|-----------------------------------------|
|-----------------------------------------|
|-----------------------------------------|


|-----------------------------------------------------------------------|
|-----------------------------10-10------9h======10-9-------------9--9--|
|--------------9h====11--(11)-11-11-11---9h======11-9-------7-----9--9--|
|-([9])--------9-----(9)--(9)------------9------------------------9--9--|
|-----------------------------------------------------------------------|
|-----------------------------------------------------------------------|
|
|-------------16b17-----------------------------------------------------|
|--17b18r(17)-17b19====================(17tr20)r------20p17p==16--------|
|----------------------------------------------------------------16-16--|
|-----------------------------------------------------------------------|
|-----------------------------------------------------------------------|
|-----------------------------------------------------------------------|


              ~~
|-------------------------|--------0-----------------0-||
|-------------------------|-----0----0-(0)-4---0-0-0---||
|-------------------------|-----4------------4---------||
|---------------------3s4-|-(4)-4----------------------||
|-------7-7-----------1s2-|-(2)------------------------||
|-x-0-4s5-4-0-4p0-(0)-----|----------------------------||


|-0h=2----2-(2)-2-2-2-2-2-0-0-0-|-0-2-2-2-(2)-2-2-2-2-2-0h=2--2-2-|
|-0-(0)-0-------0-0-0-0-0-0-0-0-|-0-0-0-0-(0)-0-0-0-0-0-0-(0)-0-0-|
|-------------------------------|---------------------------------|
|-------------------------------|---------------------------------|
|-------------------------------|---------------------------------|
|-------------------------------|---------------------------------|


|-4-4-4-4-4-4-0-0-0-0-0-0-|-0h=2--2-2-(2)-2---2-2-2-2-2-2-|
|-0-0-0-0-0-0-0-0-0-0-0-0-|-0-(0)-0-0-(0)-0-0---0-0-0-0-0-|
|-------------------------|-------------------------------|
|-------------------------|-------------------------------|
|-------------------------|-------------------------------|
|-------------------------|-------------------------------|


|-0h=2--2-2-(2)-2---2-2-2-0-0-0-|-0h=2--2-2-(2)-2---2-2-2-0h=2--2-2-|
|-0-(0)-0-0-(0)-0-0---0-0-0-0-0-|-0-(0)-0-0-(0)-0-0-0-0-0-0-(0)-0-0-|
|-------------------------------|-----------------------------------|
|-------------------------------|-----------------------------------|
|-------------------------------|-----------------------------------|
|-------------------------------|-----------------------------------|


|-2h4-4-4-4-4-4-0-0-0-0-0-0-|-0h=2--2-2-(2)-2---2-2-2-0h=2--2-2-|
|---0-0-0-0-0-0-0-0-0-0-0-0-|-0-(0)-0-0-(0)-0-0-0-0-0-0-(0)-0-0-|
|---------------------------|-----------------------------------|
|---------------------------|-----------------------------------|
|---------------------------|-----------------------------------|
|---------------------------|-----------------------------------|


|-0h=2--2-2-(2)-2-2-2-2-2-4---5-|-(5)-5-5-5-5-5-5-5-5-0h=2--2-2--|
|-0-(0)-0-0-(0)-0-0-0-0-0-0-0-0-|-(0)-0-0-0-0-0-0-0-0-0-(0)-0-0--|
|-------------------------------|--------------------------------|
|-------------------------------|--------------------------------|
|-------------------------------|--------------------------------|
|-------------------------------|--------------------------------|


|-2h4-4-4-4-4-4-0-0-0-0-0-0-|-0h=2--2-2-(2)-2---2-2-2-0h=2--2-2-|
|---0-0-0-0-0-0-0-0-0-0-0-0-|-0-(0)-0-0-(0)-0-0-0-0-0-0-(0)-0-0-|
|---------------------------|-----------------------------------|
|---------------------------|-----------------------------------|
|---------------------------|-----------------------------------|
|---------------------------|-----------------------------------|


|-0h=2--2-2-(2)-2---2-2-2-0-0-0-|-0h=2--2-2-(2)-2---2-2-2-0h=2--2-2-|
|-0-(0)-0-0-(0)-0-0---0-0-0-0-0-|-0-(0)-0-0-(0)-0-0-0-0-0-0-(0)-0-0-|
|-------------------------------|-----------------------------------|
|-------------------------------|-----------------------------------|
|-------------------------------|-----------------------------------|
|-------------------------------|-----------------------------------|


|-2h4-4-4-4-4-4-0-0-0-0-0-0-|-0h=2--2-2-(2)-2---2-2-2-0h=2--2-2-||
|---0-0-0-0-0-0-0-0-0-0-0-0-|-0-(0)-0-0-(0)-0-0-0-0-0-0-(0)-0-0-||
|---------------------------|-----------------------------------||
|---------------------------|-----------------------------------||
|---------------------------|-----------------------------------||
|---------------------------|-----------------------------------||


 Outro
                               ~~~~~~~~
|--------------------------------|------------------------------------------|
|-------------10----10-9h10-9----|-----------------10----10-9h10-9------9-9-|
|--9h11--(11)-11-11----9h11-9----|------9h11--(11)-11-11-11-9h11-9------9-9-|
|--9-(9)--(9)---------------9--9-|-(9)--9-(9)--(9)-------------------9------|
|--------------------------------|------------------------------------------|
|--------------------------------|------------------------------------------|


              ~~
|-------------------------|
|-------------------------|
|-------------------------|
|---------------------3s4-|
|-------7-7-----------1s2-|
|-x-0-4s5-4-0-4p0-(0)-----|


                                                      ~
|----------10-------------------------------------------|
|----------10-9b10==(9)r(9)b10==(9)r(9)b10==(9)r(9)-----|
|-----4-x/----9b11==(9)r(9)b11==(9)r(9)b11==(9)r(9)p7---|
|-(4)-4-x/--------------------------------------------9-|
|-(2)---------------------------------------------------|
|-------------------------------------------------------|


|-----------------------------------|
|--------------10-10-10-9h10-9------|
|-x--9h11-(11)-11-11-11-9h11-9------|
|-x--9--------------------------[9]-|
|-----------------------------------|
|-----------------------------------|


|---------------------------------------------|
|-------------------10-10----9h10-9------9-9--|
|--------9h11--(11)-11-11-11-9h11-9---7--9-9--|
|-([9])--9-(9)--(9)----------9-----------9-9--|
|---------------------------------------------|
|---------------------------------------------|


              ~~
|-------------------------|---------------*|
|-------------------------|---------------*|
|-------------------------|---------------*|
|---------------------3s4-|-(4)-----------*|
|-------7-7-----------1s2-|-(2)-2-0tr2----*|
|-x-0-4s5-4-0-4p0-(0)-----|---------------*|



Добавлено: 16.04.2012
Другие материалы по этой песне:

Страница создана 16.04.2012
http://primanota.ru/joe-satriani/ride-chords.htm
Привет, Гость.
Предлагаем пройти революционный курс по гитаре.
Подарок от PrimaNota.Ru, забирай!