PrimaNota.ru - самый крупный в мире бесплатный архив песенных текстов, аккордов, табулатур и нот


Joe Satriani - Mind Storm - таба, видео

Регистрация Запомнить меня
Войти через:  Facebook Google Twitter Vk Yandex Mail.ru

Joe Satriani - Mind Storm - таба, видео

Печатать
Просмотров: 305
Авторы музыки: Joe Satriani

This is the best song to never have lyrics, only problem is its with a 7 string, but you 
still pull it off with a 6 string if you play it with octaves or something.


E|----------------------------------------------------10p9h10p9h10-|
B|-2-2-2-2-2h3p2--2-2-2-2-2h3p2--2-2-2-2-2h3p2--2------------------|
G|-4-4-4-4-4------4-4-4-4-4------4-4-4-4-4------4------------------|
D|-4-4-4-4-4------4-4-4-4-4------4-4-4-4-4------4------------------| big slide
A|-2-2-2-2-2------2-2-2-2-2------2-2-2-2-2------2------------------|
E|-----------------------------------------------------------------|
B|-----------------------------------------------------------------|

E|----------------------------------------------------|
B|----------------------------------------------------|
G|----------------------------------------------------|
D|----------------------------------------------------|
A|-2x2x2x2x-4h5p4p0-5x5x5x5x-4h5p4p0-2x2x2x2x-4h5p4p0-|
E|-2x2x2x2x---------5x5x5x5x---------2x2x2x2x---------|
B|-0x0x0x0x---------3x3x3x3x---------0x0x0x0x---------|

E|---------------------------|
B|---------------------------|
G|---------------------------|
D|---------------9-9---------|
A|-5---------7-0-----7p0-7p0-|
E|-5-----5-5-----------------|
B|-3-3-3---------------------|

E|------------------------------------|----------------------|
B|------------------------------------|--------------5-------|
G|-4/6-4/6-4/6-----------2-2/4--------|--4/6-4/6-4/6---6-4-6-|
D|-------------4-4-4-2-4--------4-4-4-|----------------------|
A|------------------------------------|----------------------|
E|------------------------------------|----------------------|
B|------------------------------------|----------------------|

E|-------------------------|
B|-------------------------|
G|-4h6-4h6-6h7p6-----------|
D|---------------9-7-7h9-9-|
A|-------------------------|
E|-------------------------|
B|-------------------------|

E|--------------------------------------------------------------------------|
B|-12--14--15--15--17--19--19--19--19--19--17--19--15--17--19--17--15--14---|
G|-12--14--16--16--18--19--19--19--19--19--18--19--16--18--19--18--16--14---|
D|--------------------------------------------------------------------------|
A|--------------------------------------------------------------------------|
E|--------------------------------------------------------------------------|
B|--------------------------------------------------------------------------|

E|-------------19--19--19--            |--21--21--21--|22~
B|-19--19--19--19--19--19--            |--19--19--19--|22~
G|-19--19--19--------------            |--------------|
D|------------------------- x2 then    |--------------|
A|------------------------- 2nd time   |--------------|
E|------------------------- play this->|--------------|
B|-------------------------            |--------------|
Добавлено: 23.03.2012
Другие материалы по этой песне:

Страница создана 23.03.2012
http://primanota.ru/joe-satriani/mind-storm-chords.htm
Привет, Гость.
Предлагаем пройти революционный курс по гитаре.
Подарок от PrimaNota.Ru, забирай!