PrimaNota.ru - самый крупный в мире бесплатный архив песенных текстов, аккордов, табулатур и нот


Joe Satriani - Bells Of Lal Part 1 - таба, видео

Регистрация Запомнить меня
Войти через:  Facebook Google Twitter Vk Yandex Mail.ru

Joe Satriani - Bells Of Lal Part 1 - таба, видео

Печатать
Просмотров: 200
                           THE BELLS OF LAL (PART ONE)
                           As recorded by Joe Satriani
                  (From the 1989 Album FLYING IN A BLUE DREAM)

Music by Joe Satriani
Transcribed by www.mikesguitarsite.co.uk

  Free Time Q=138
 4/4
  Gtr I
                            <
|------------------:------------:
|------------------:------------:
|--------------6---:-8----------:
|-8--(8)---9-------:--------8---:
|-6--(6)-6---6---6-:---6----6---:
|------------------:------------:


                                  <
       /1\
|------------------------:------------:--------------------:
|------------------------:------------:--------------------:
|--------------------6---:-8----------:----------------6---:
|-(8)-(8)--(8)---9-------:--------8---:-(8)--(8)---9-------:
|-(6)-(6)--(6)-6---6---6-:---6--------:----------6---6---6-:
|------------------------:------------:--------------------:


         <                                     <
                    /1\
|------------:------------------------:------------:
|------------:------------------------:------------:
|-8----------:--------------------6---:-8----------:
|--------8---:-(8)-(8)--(8)---9-------:--------8---:
|---6----6---:-(6)-(6)--(6)-6---6---6-:---6--------:
|------------:------------------------:------------:


|--------------------:---------------:---------------------:
|--------------------:---------------:---------------------:
|----------------6---:-8-------------:---------------------:
|-(8)--(8)---9-------:---------------:---------------------:
|----------6---6---6-:---6--6-(6)----:-(6)-8h9p8-6---------:
|--------------------:---------------:-------------9-7-6-4-:


|-------------------------:--------------:------------------------------------:
|-------------------------:--------------:------------------------------------:
|-------------------------:--------------:------------------------------------:
|-------------------------:--------------:------------------------------------:
|-------------------------:--------------:---------6h8------------------------:
|-6h7h9--6-(6)--(6)p4h6h7p:=6---6-(6)----:-(6)h7h9-----11p9p7h11p9p7s6-6h7h9--:


|----------------------------:-------------------------:
|----------------------------:-------------------------:
|----------------------------:-------------------------:
|---------------------h6-----:-----3h4p3-4h6p4s3-6h8p6-:
|-h6------------6h8p6----9p8-:-(8)---------------------:
|----9p7p6--7h9--------------:-------------------------:


|--------------------------------:------------------:-------------------------:
|--------------------------------:------------------:---------------------6---:
|--------------------------------:------------------:-4h6p3h6-(6)p4p3h8-6---8-:
|-8h9p8-(8)h9p8-(8)s=6s4h6h8p4h6-:-(6)--(6)s11s8----:-------------------------:
|--------------------------------:------------------:-------------------------:
|--------------------------------:------------------:-------------------------:


                                                <
                        PM
|---------------------------------------:--------------:---------------------:
|-7-9-----------------------------------:--------------:---------------------:
|-----8S11-10-8-------------------------:--------------:---------------------:
|---------------11-9-8----9-8-----------:--------------:----------------4h6h=:
|----------------------11-----11-9-8----:-------6------:-(6)------4h6h8------:
|------------------------------------11-:-(11)---------:---------------------:


 2/4          4/4
                 <
|------------:----------:---------------------:
|------------:----------:---------------------:
|------------:----------:---------------------:
|-8p=6p4-----:----------:----------------4h6h=:
|--------8p6-:---6------:-(6)------4h6h8------:
|------------:----------:---------------------:


 2/4          4/4
|------------:----------:---------------------:
|------------:----------:---------------------:
|------------:----------:---------------------:
|-8p=6p4-----:----------:----------------4h6h=:
|--------8p6-:---6------:-(6)------4h6h8------:
|------------:----------:---------------------:


 2/4          4/4                             2/4          4/4
|------------:----------:--------------------:------------:-----*|
|------------:----------:--------------------:------------:-----*|
|------------:----------:--------------------:------------:-----*|
|-8p=6p4-----:----------:----------------4h6h:=8p=6p4-----:-----*|
|--------8p6-:---6------:-(6)------4h6h8-----:--------8p6-:-----*|
|------------:----------:--------------------:------------:-----*|



Добавлено: 23.02.2012
Другие материалы по этой песне:
  • Аккорды и текст

Страница создана 23.02.2012
http://primanota.ru/joe-satriani/bells-of-lal-part-1-chords.htm
Привет, Гость.
Предлагаем пройти революционный курс по гитаре.
Подарок от PrimaNota.Ru, забирай!