PrimaNota.ru - самый крупный в мире бесплатный архив песенных текстов, аккордов, табулатур и нот


Joe Satriani - Come On Baby - таба, видео

Регистрация Запомнить меня
Войти через:  Facebook Google Twitter Vk Yandex Mail.ru

Joe Satriani - Come On Baby - таба, видео

Печатать
Просмотров: 372
-------------------------------------------------------------------------------
                             Come On Baby (Intro) - Joe Satriani
-------------------------------------------------------------------------------

Tuning: EADGBe
Effects: Reverb, Overdrive, slight delay

Notes: many of the notes on the intro have a subtle slide/vibrato when
being played, I didn't attempt to mark them all so you must listen and 
improvise yourself.

Please comment if you feel I've missed something or to correct what
I've contributed, I will admit this is my first attempt at submitting
original tab so accuracy is not 100% guaranteed.


start 00:29

e|---------------------------------------------------------------------------|
B|---------------------------------------------------------------------------|
G|---------------------------------------------------------------------------|
D|-------4--6--8--4------------4--6--8--6~---------4--6--8--4----------------|
A|---/6--------------6~-----6-------------------6--------------6~------------|
E|---------------------------------------------------------------------------|

00:43

e|---------------------------------------------------------------------------|
B|---------------------------------------------------------------------------|
G|----------------------------------11--13--15------------11--13b--13b--11~--|
D|-----------------4--/6--------13--------------13----13---------------------|
A|----8b9r8--6--4------------------------------------------------------------|
E|---------------------------------------------------------------------------|

00:54

e|---------------------------------------------------------------------------|
B|---------------------------------------------------------------------------|
G|-----------------------------11--13--15--11b-------------------------------|
D|---15b15b--13p11h13------13-------------------13------15b15b--13p11h13~----|
A|---------------------------------------------------------------------------|
E|---------------------------------------------------------------------------|

end 1:05


| /  slide up
| \  slide down
| h  hammer-on
| p  pull-off
| ~  vibrato
| +  harmonic
| x  Mute note
| ^  bend
===============================================================================
Добавлено: 10.07.2012
Другие материалы по этой песне:

Страница создана 29.02.2012
http://primanota.ru/joe-satriani/come-on-baby-chords.htm
Привет, Гость.
Предлагаем пройти революционный курс по гитаре.
Подарок от PrimaNota.Ru, забирай!