PrimaNota.ru - самый крупный в мире бесплатный архив песенных текстов, аккордов, табулатур и нот


Joe Satriani - Crazy - таба, видео

Регистрация Запомнить меня
Войти через:  Facebook Google Twitter Vk Yandex Mail.ru

Joe Satriani - Crazy - таба, видео

Печатать
Просмотров: 172
Уроки эстрадного вокала в Санкт-Петербурге
-|------------------------5/---7-----------------------------------------------|
-|------------------------5/---7--5/-------------------------------------------|
-|---------------------------------5/------------------------------------------|
-|-----------------------------------------------------------------------------|
-|-----------------------------------------------------------------------------|
-|-/12-------------------------------------------------------------------------|
 w/dig wham d oct + wah  nh w/ whammy (in -oct setting, start full forward)

-|-7-/------------------------------------------------------------------------|
-|-7-/------------------------------------------------------------------------|
-|-7-/------------------------------------------------------------------------|
-|----------------------------------------------------------------------------|
-|-------------------------------------------0---5----------------------------|
-|------------------------------55555-666666--------5-------------------------|
  nh  w/wham as above   for bass  dn octave    nh  nh

-|-------------------|-----|------------------|-------------------------------|
-|-------------------|-----|------------------|-------------------------------|
-|----2-2-2-2---2----|-----|---2-2-2---2------|-------------------------------|
-|----2-2-2-2---2----|-x7--|---2-2-2---2------|-------------------------------|
-|----0-0-0-0---0----|-----|---0-0-0---0---2--|-------------------------------|
-|--3---------3---3--|-----|-3-------3---3-0-3|-------------------------------|
 R1 heavy mute                      R1b

-|----------------------------------------------------------------------------|
-|----------------------------------------------------------------------------|
-|----------------------------------------------------------------------------|
-|----------------------------------------------------------------------------|
-|----------------------------------------------------------------------------|
-|----------------------------------------------------------------------------|
 G1   random pick scratches w/ whammy

-|----------------|---|----------------|--|------|----|-----------------------|
-|----------------|---|---3-3-3---3----|--|------|----|-----------------------|
-|----------------|---|---2-2-2---2----|--|------|----|-----------------------|
-|----------------|-x4|---0-0-0---0----|x2|------|-x2-|-----------------------|
-|----------------|---|-3-------3---3--|--|------|----|-----------------------|
-|----------------|---|----------------|--|------|----|-----------------------|
 RV First part R1(R1a)      R2               R1a

-|---------------|---|----|---|-----------------------------------------------|
-|---------------|---|----|---|-----------------------------------------------|
-|-7-9-9-9-7-9-7-|---|----|---|-----------------------------------------------|
-|-7-9-9-9-7-9-7-|-x2|----|-x2|-----------------------------------------------|
-|-5-7-7-7-5-7-5-|---|----|---|-----------------------------------------------|
-|---------------|---|----|---|-----------------------------------------------|
   My head's so heavy   R2

--|---------------------|----|-----|------------------------------------------|
--|---------------------|----|-----|------------------------------------------|
--|---------------------|----|-----|------------------------------------------|
--|---------------------|-x3-|-----|------------------------------------------|
--|---------------------|----|-----|------------------------------------------|
--|---------------------|----|-----|------------------------------------------|
    I'm Going crazy R1a        R1b

-|-----------------------|-----7--/------|-------------------------------------|
-|-----------------------|----------------|------------------------------------|
-|-----------------------|----------------|------------------------------------|
-|----------------2------|----------------|------------------------------------|
-|----------------0-/---|----------------|-------------------------------------|
-|-----------------------|----------------|------------------------------------|
  G1     w/wham -2oct /      ph pitch  b

-|---------------------15-/--------15------------------------------------------|
-|-----------------------------------------------------------------------------|
-|------------------14---------14----------------------------------------------|
-|-----------------------------------------------------------------------------|
-|-----------------------------------------------------------------------------|
-|-----------------------------------------------------------------------------|
 G1 something to do      w/bar

-|----------------------------------------------------------------------------|
-|----------------------------------------------------------------------------|
-|----------------------------------------------------------------------------|
-|----------------------------------------------------------------------------|
-|----------------------------------------------------------------------------|
-|-0-0-5-4-3-2-1-0----x-0-1-2-3-4-5-5-----------------------------------------|
 R3going crazy   heavy mute

-|---------------------5-/------------|----------------|-----------------------|
-|---------------------5-/------------|----------------|-----------------------|
-|-------------------------------------|----------------|----------------------|
-|-------------------------------------|------r10^^^^---|----------------------|
-|-------------------------------------|----------------|--------10------------|
-|-------------------------------------|----------------|----------------------|
 G1      it's all rightnh w/ wham +oct   crazy  w/bar     tight

-|--------------------------------|-------------------------------------------|
-|--------------------------------|-------------------------------------------|
-|--------------------------------|-----------------------4h5p4---------------|
-|--------------------------4h5p4-|-0-0-2p0-3p0-0-4p0-5p0---------------------|
-|----0-0-2p0-3p0-0-4p0-5p0-------|-------------------------------------------|
-|--------------------------------|-------------------------------------------|
 R4 give it to me now

-|---------19t20p19t20p19t20p19t20p19t20p19t20p19t20p19t20p19t20p19t20--------|
-|----------------------------------------------------------------------------|
-|----------------------------------------------------------------------------|
-|---0------------------------------------------------------------------------|
-|----------------------------------------------------------------------------|
-|----------------------------------------------------------------------------|
 G1
Добавлено: 07.06.2012
Другие материалы по этой песне:
  • Аккорды и текст

Страница создана 07.06.2012
http://primanota.ru/joe-satriani/crazy-chords.htm
Привет, Гость.
Предлагаем пройти революционный курс по гитаре.
Подарок от PrimaNota.Ru, забирай!