PrimaNota.ru - самый крупный в мире бесплатный архив песенных текстов, аккордов, табулатур и нот


Jesse Cook - Cancion Triste - таба, видео

Регистрация Запомнить меня
Войти через:  Facebook Google Twitter Vk Yandex Mail.ru

Jesse Cook - Cancion Triste - таба, видео

Печатать
Просмотров: 614
                                CANCION TRISTE                                  


                                                                      Jesse Cook
Track 1



E||-------|-------|-------|-------|-------|-------|-------|
B||-------|-------|-------|-------|-------|-------|-------|
G||-------|-------|-------|-------|-------|-------|-------|
D||-------|-------|-------|-------|-------|-------|-------|
A||-------|-------|-------|-------|-------|-------|-------|
E||-------|-------|-------|-------|-------|-------|-------|


    H         H            H        Q    Q         Q    E  E  H         
|----------------------|----------------------|------------------------|
|----------------------|----------------------|------------------------|
|*-----------10--------|---L--------9----7----|--7g9----7--------------|
|*--7------------------|----------------------|------------8--L--------|
|----------------------|----------------------|------------------------|
|----------------------|----------------------|------------------------|


  H        Q    Q       H         H            H        Q    Q     
---------------------|---------------------|----------------------|
---------------------|---------------------|----------------------|
---------------------|-----------10--------|---L--------9----7----|
--L-------------5----|--7------------------|----------------------|
---------------------|---------------------|----------------------|
---------------------|---------------------|----------------------|


    W                   H        Q    Q         H         H         
---------------------|----------------------||---------------------|
---------------------|----------------------||---------------------|
--7g9----------------|--L------------------*||---------------------|
---------------------|----------------5----*||--7--------10--------|
---------------------|----------------------||---------------------|
---------------------|----------------------||---------------------|


   H         Q    E  E     W                   W                 
------------------------|-------------------|-------------------|
------------------------|-------------------|-------------------|
------------------9--7--|--L----------------|--L----------------|
---L--------10----------|-------------------|-------------------|
------------------------|-------------------|-------------------|
------------------------|-------------------|-------------------|


                          NH                            
    E   E  E  E  Q.       E     E   E  E  E  Q.     E   
|----------------------------|-------------------------|
|---8--10--8-----------------|--8--10--8---------------|
|*---------------------------|----------------------9--|
|*------------7--L------<>7--|------------7--L---------|
|----------------------------|-------------------------|
|----------------------------|-------------------------|


     E  E  H.              W                        Q    E  E  H         
------------------------|--------------------||-------------------------|
------------------------|--------------------||-------------------------|
--9g10--7--L------------|--L----------------*||--9g10----9--7--L--------|
------------------------|-------------------*||-------------------------|
------------------------|--------------------||-------------------------|
------------------------|--------------------||-------------------------|


                                            NH                            
  W                   E   E  E  E  Q.       E     E   E  E  E  Q.     E   
-------------------|---------------------------|-------------------------|
-------------------|--8--10--8-----------------|--8--10--8---------------|
--L----------------|---------------------------|----------------------9--|
-------------------|------------7--L------<>7--|------------7--L---------|
-------------------|---------------------------|-------------------------|
-------------------|---------------------------|-------------------------|


     |----3----|                                      |----3----|              
     Q    Q    Q    Q    Q       W                    Q    Q    Q    H         
------------------------------|-------------------|---------------------------|
------------------------------|-------------------|---------------------------|
--9g10----9----7----5----7----|--L----------------|--10----9----7-------------|
--------------------7----7----|--L----------------|------------------8--------|
------------------------------|-------------------|---------------------------|
------------------------------|-------------------|---------------------------|


  |-----3----|                                                              
  Q    Q     Q    Q.      E       E  E  H        Q       H        H         
-----------------------------|------------------------|--------------------|
-----------------------------|------------------------|--------------------|
--9----7---------------------|--7g9--7--L--------L----|--L-----------------|
------------10----7------10--|------------------------|--------------------|
-----------------------------|------------------------|--------------------|
-----------------------------|------------------------|--------------------|


                   |--3--|                                  
  H        S S S S E  E  E     E  E  E  E  T  T  E.  E  E   
----------------------------|--------------0h-1p-0---------|
----------------------------|------------------------3--5--|
-------------------2--3--2--|-----2--3--5------------------|
--0----------2-3-5----------|--5---------------------------|
----------------------------|------------------------------|
----------------------------|------------------------------|


  E  E  E   E  E   E  E   E     W                 
-----3--3h-------------------|-------------------|
--L---------6--6p--5--3h--6--|--L----------------|
-----------------------------|-------------------|
-----------------------------|-------------------|
-----------------------------|-------------------|
-----------------------------|-------------------|


                      |--3--|     |--3--|  |--3--|                       
  Q    S S S S S S E  E  E  E     E  E  E  E  E  E  T  T  S  E   S E  S  
-------------------------------|--------------------5h-6p-5h-----5-8--8-|
-------------------------------|--5-----6--5--6--8-----------8h---------|
-------------------5-----5--7--|-----7----------------------------------|
-----------5-7-8-7----8--------|----------------------------------------|
--5----7-8---------------------|----------------------------------------|
-------------------------------|----------------------------------------|


  E   E  E   E  E   E  E   E     E   E  H.            
--8p--6--6p--5--5h---------5--|----------------------|
--------------------8--8h-----|--6h--8--5------------|
------------------------------|----------------------|
------------------------------|----------------------|
------------------------------|----------------------|
------------------------------|----------------------|


  E  E  E   E  E   E  E  E      Q    E  E  E   E   T   T   S E   
-----------------------------|----------------------------------|
--3--3--3s--5--5s--6--L--6s--|--8----8--8--L--10--10h-11p-10-8--|
-----------------------------|----------------------------------|
-----------------------------|----------------------------------|
-----------------------------|----------------------------------|
-----------------------------|----------------------------------|


   E  E  E  E  E    E   E    E      E   E  E    E  E   E  Q     
------8--L--8--8h---------------|------------------------------|
--10---------------11--11p--10--|--10p--8--8h--10--6h--8--5----|
--------------------------------|------------------------------|
--------------------------------|------------------------------|
--------------------------------|------------------------------|
--------------------------------|------------------------------|


  H        E  Q    E     E  E  H        E  E     H.           E   E   
----------------------|-----------------------|----------------------|
----------------------|-----------------------|----------------------|
--------------7----7--|--7--5--L--------------|----------------------|
--7-------------------|--------------------7--|--7------------7h--8--|
--0-------------------|-----------------------|----------------------|
----------------------|-----------------------|----------------------|


                                              NH                            
  W                     E   E  E  E  Q.       E     E   E  E  E  Q.     E   
-------------------||----------------------------|-------------------------|
-------------------||---8--10--8-----------------|--8--10--8---------------|
-------------------||*---------------------------|----------------------9--|
--7----------------||*------------7--L------<>7--|------------7--L---------|
-------------------||----------------------------|-------------------------|
-------------------||----------------------------|-------------------------|


     E  E  H.              W                        Q    E  E  H         
------------------------|--------------------||-------------------------|
------------------------|--------------------||-------------------------|
--9g10--7--L------------|--L----------------*||--9g10----9--7--L--------|
------------------------|-------------------*||-------------------------|
------------------------|--------------------||-------------------------|
------------------------|--------------------||-------------------------|


                                            NH                            
  W                   E   E  E  E  Q.       E     E   E  E  E  Q.     E   
-------------------|---------------------------|-------------------------|
-------------------|--8--10--8-----------------|--8--10--8---------------|
--L----------------|---------------------------|----------------------9--|
-------------------|------------7--L------<>7--|------------7--L---------|
-------------------|---------------------------|-------------------------|
-------------------|---------------------------|-------------------------|


     |----3----|                                      |----3----|              
     Q    Q    Q    Q    Q       W                    Q    Q    Q    H         
------------------------------|-------------------|---------------------------|
------------------------------|-------------------|---------------------------|
--9g10----9----7----5----7----|--L----------------|--10----9----7-------------|
--------------------7----7----|--L----------------|------------------8--------|
------------------------------|-------------------|---------------------------|
------------------------------|-------------------|---------------------------|


  |-----3----|                                                              
  Q    Q     Q    Q.      E       E  E  H        Q       H        H         
-----------------------------|------------------------|--------------------|
-----------------------------|------------------------|--------------------|
--9----7---------------------|--7g9--7--L--------L----|--L-----------------|
------------10----7------10--|------------------------|--------------------|
-----------------------------|------------------------|--------------------|
-----------------------------|------------------------|--------------------|


                               |----3----|                         
  W                   H        Q    Q    Q       W                 
-------------------|--------------------------|-------------------|
-------------------|--------------------------|-------------------|
-------------------|--------------------------|--5----------------|
-------------------|--------------------------|-------------------|
--5----------------|--7-------------5----8----|-------------------|
-------------------|--------------------------|-------------------|


  H.           Q       W                   H.           E  E   
--------------------|-------------------|---------------------|
--------------------|-------------------|---------------------|
---------------7----|-------------------|---------------------|
--8-----------------|--7----------------|--L------------5--7--|
--------------------|-------------------|---------------------|
--------------------|-------------------|---------------------|


  H.           Q       H.           Q       W                 
--------------------|--------------------|-------------------|
--------------------|--------------------|-------------------|
--------------------|--------------------|-------------------|
---------------7----|---------------7----|--0----------------|
--8-----------------|--7-----------------|-------------------|
--------------------|--------------------|-------------------|


           |----3----|                                               
  H        Q    Q    Q       W                   H.           E  E   
--------------------------|-------------------|---------------------|
--------------------------|-------------------|---------------------|
--------------------------|--5----------------|---------------------|
--------------------------|-------------------|--8------------7--5--|
--7-------------5----8----|-------------------|---------------------|
--------------------------|-------------------|---------------------|


                                                      |----3----|     
  H.           E  E     H.           Q       H        Q    Q    Q     
---------------------|--------------------|--------------------------|
---------------------|--------------------|---------------------6----|
---------------------|--------------------|----------------7---------|
--7------------5-----|--5-----------------|-----------7--------------|
------------------8--|---------------7----|--8-----------------------|
---------------------|--------------------|--------------------------|


  W                   W                   W                 
--5----------------|--3----------------|--L----------------|
-------------------|-------------------|-------------------|
-------------------|-------------------|-------------------|
-------------------|-------------------|-------------------|
-------------------|-------------------|-------------------|
-------------------|-------------------|-------------------|


  E  E  E  E  E  E  E  E     E  E  E  E  E  E  E  E     W                 
-----5-----5-----5--------|--------------------------|-------------------|
--------8-----6-----5--6--|-----6--5--6--8--6--5--6--|--8----------------|
--------------------------|--7-----------------------|-------------------|
--------------------------|--------------------------|-------------------|
--------------------------|--------------------------|-------------------|
--------------------------|--------------------------|-------------------|


                                 |-----3-----|                            
  H        H           H         Q     Q     Q        H         H         
-----------6--------|--5--------------------------|--13--------12--------|
--L-----------------|-----------------------------|----------------------|
--------------------|-----------------------------|----------------------|
--------------------|-----------------12----15----|----------------------|
--------------------|-----------12----------------|----------------------|
--------------------|-----------------------------|----------------------|


   W                    W                   E  E  E  E  E  E  E  E   
--------------------|--------------------|-----5-----5-----5--------|
--------------------|--------------------|--------8-----6-----5--6--|
--12----------------|---L----------------|--------------------------|
--------------------|--------------------|--------------------------|
--------------------|--------------------|--------------------------|
--------------------|--------------------|--------------------------|


  E  E  E  E  E  E  E  E     H.           Q       H.           Q     
--------------------------|--------------------|--------------------|
-----6--5--6--8--6--5--6--|--------------------|--------------------|
--7-----------------------|---------------7----|---------------5----|
--------------------------|--8-----------------|--7-----------------|
--------------------------|--------------------|--------------------|
--------------------------|--------------------|--------------------|


  W                   W                   E  E  E  E  E  E  E  E   
-------------------|-------------------|--------------------------|
-------------------|-------------------|--------------------------|
--7----------------|-------------------|--------------------------|
-------------------|-------------------|--------------------------|
-------------------|--8----------------|--7--8--7--8--7--8--7--8--|
-------------------|-------------------|--------------------------|


  tr                                                                         
                |---3--|  |---3--|     |---3--|                              
  Q       E  E  E   E  E  E  E   E     E   E  E   T   T   S E   E  E  E  E   
------------------------------------|------------------------------8--L--8--|
------------------------------------|---------8--10h-11p-10-8--10-----------|
-----------------------7--9--7--10--|--9--10--------------------------------|
-------------7--8--10---------------|---------------------------------------|
--7(8)------------------------------|---------------------------------------|
------------------------------------|---------------------------------------|


   |-----3-----|                            |-----3-----|     
   Q     Q     Q      H            H        Q     Q     Q     
--10----10----10s----13--------|---L-------------13----13----|
-------------------------------|-----------------------------|
-------------------------------|-----------------------------|
-------------------------------|-----------------------------|
-------------------------------|-----------------------------|
-------------------------------|-----------------------------|


   |-----3-----|                 |-----3-----|                  
   Q     Q     Q     H           Q     Q     Q     E   Q    E   
--13----12--------------------|--------------------------------|
--------------10-----L--------|-------11----11----11s--8----8--|
------------------------------|--------------------------------|
------------------------------|--------------------------------|
------------------------------|--------------------------------|
------------------------------|--------------------------------|


  E    Q    E  E   Q    E     E   E  H        E  E     H        E.  S E  E   
---------------------------|------------------------|-----------------------|
--8s--10----6--8p--5----5--|--5h--6-----------------|---------------5-6--8--|
---------------------------|---------7--------------|-----------------------|
---------------------------|---------------------7--|--8--------------------|
---------------------------|------------------------|-----------------------|
---------------------------|------------------------|-----------------------|


             |--3--|  |----3----|                 |----3----|     
  T  T S S S E  E  E  Q    Q    Q       Q.     E  Q    Q    Q     
--5h-6-5---5-L--------5----6----8----|--8------6--6----5---------|
---------8------6--8-----------------|----------------------8----|
-------------------------------------|---------------------------|
-------------------------------------|---------------------------|
-------------------------------------|---------------------------|
-------------------------------------|---------------------------|


  |----3----|                                                              
  Q    Q    Q    H           H.           E  E     E  Q    E  E   Q    E   
--5-----------------------|---------------------|-------------------------|
-------6----8----5--------|--L------------------|--6--5----6--6p--5----6--|
--------------------------|------------------7--|----------7--7h--7----7--|
--------------------------|---------------------|-------------------------|
--------------------------|---------------------|-------------------------|
--------------------------|---------------------|-------------------------|


  E   Q    E  E   Q.        E    E   E   E    E   E   E    E   
-------------------------|------------------------------------|
--6p--5----6--6s--8------|--8h--10--10--10h--11--11--11h--13--|
--7---7----7--7s--9------|--9h--10--10--10---12--12--12h--14--|
-------------------------|------------------------------------|
-------------------------|------------------------------------|
-------------------------|------------------------------------|


                  |---3--|      |---3--|   |---3--|   |---3--|           
   H        E  E  E   E  E      E  E   E   E   E  E   E  E   E   E   E   
----------------------------|---------------------8--10--8--12--10--13--|
--13---------------------8--|--10--8--11--10--11------------------------|
--14-----------7--9--10-----|-------------------------------------------|
----------------------------|-------------------------------------------|
----------------------------|-------------------------------------------|
----------------------------|-------------------------------------------|


                   |-----3-----|        |-----3-----|               
   E   E   E   E   Q     Q     Q        Q     Q     Q     H         
--13--12--12--13--13----12----13----|--13--------------------------|
------------------------------------|--------10----10----11--------|
------------------------------------|------------------------------|
------------------------------------|------------------------------|
------------------------------------|------------------------------|
------------------------------------|------------------------------|


   W                   Q.     E  E   Q    E     E   Q    E  E   Q.      
--------------------|--6------6--6s--3----3--|--5s--1----1--3p--0------|
---L----------------|--8------8--8s--5----5--|--6---3----3--5p--1------|
--------------------|------------------------|-------------------------|
--------------------|------------------------|-------------------------|
--------------------|------------------------|-------------------------|
--------------------|------------------------|-------------------------|


  H        E  E  E  E     H.           E  E     E  E  H.            
--L--------------1--0--|--L------------------|--0--1---------------|
--L-----------3--3--3--|--L---------------3--|--3--3--3------------|
--------------3--------|------------------3--|--------2------------|
-----------------------|---------------------|---------------------|
-----------------------|---------------------|---------------------|
-----------------------|---------------------|---------------------|


                           |----3----|                |----3----|               
  E  E  E   E  H           Q    Q    Q    H           Q    Q    Q    Q.     E   
--------0h--1-----------|--------------------------|---------------------------|
-----3--3h-----3--------|--6----5----3-------------|--5----3-------------------|
-----2---------2--------|-----------------3--------|------------5----2------5--|
------------------------|--------------------------|---------------------------|
------------------------|--------------------------|---------------------------|
------------------------|--------------------------|---------------------------|


  E  E  H.              H        H             H         H         
---------------------|--------------------||----------------------|
--5--3--L------------|--L-----------------||----------------------|
---------------------|--------------------||*-----------10--------|
---------------------|--------------------||*--7------------------|
---------------------|--------------------||----------------------|
---------------------|--------------------||----------------------|


   H        Q    Q         Q    E  E  H           H        Q    Q     
----------------------|------------------------|---------------------|
----------------------|------------------------|---------------------|
---L--------9----7----|--7g9----7--------------|---------------------|
----------------------|------------8--L--------|--L-------------5----|
----------------------|------------------------|---------------------|
----------------------|------------------------|---------------------|


  H         H            H        Q    Q         W                 
---------------------|----------------------|---------------------|
---------------------|----------------------|---------------------|
-----------10--------|---L--------9----7----|--7g9----------------|
--7------------------|----------------------|---------------------|
---------------------|----------------------|---------------------|
---------------------|----------------------|---------------------|


  H        Q    Q         H         H            H         Q    E  E   
----------------------||---------------------|------------------------|
--L-------------------||---------------------|------------------------|
--L------------------*||---------------------|------------------9--7--|
----------------5----*||--7--------10--------|---L--------10----------|
----------------------||---------------------|------------------------|
----------------------||---------------------|------------------------|


                                                                  NH  
  W                   W                     E   E  E  E  Q.       E   
-------------------|-------------------||----------------------------|
-------------------|-------------------||---8--10--8-----------------|
--L----------------|--L----------------||*---------------------------|
-------------------|-------------------||*------------7--L------<>7--|
-------------------|-------------------||----------------------------|
-------------------|-------------------||----------------------------|


  E   E  E  E  Q.     E        E  E  H.              W                   
-------------------------|------------------------|--------------------||
--8--10--8---------------|------------------------|--------------------||
----------------------9--|--9g10--7--L------------|--L----------------*||
------------7--L---------|------------------------|-------------------*||
-------------------------|------------------------|--------------------||
-------------------------|------------------------|--------------------||


                                                                      NH  
     Q    E  E  H           W                   E   E  E  E  Q.       E   
-------------------------|-------------------|---------------------------|
-------------------------|-------------------|--8--10--8-----------------|
--9g10----9--7--L--------|--L----------------|---------------------------|
-------------------------|-------------------|------------7--L------<>7--|
-------------------------|-------------------|---------------------------|
-------------------------|-------------------|---------------------------|


                               |----3----|                                   
  E   E  E  E  Q.     E        Q    Q    Q    Q    Q       W                 
-------------------------|------------------------------|-------------------|
--8--10--8---------------|------------------------------|-------------------|
----------------------9--|--9g10----9----7----5----7----|--L----------------|
------------7--L---------|--------------------7----7----|--L----------------|
-------------------------|------------------------------|-------------------|
-------------------------|------------------------------|-------------------|


   |----3----|                |-----3----|                
   Q    Q    Q    H           Q    Q     Q    Q.      E   
---------------------------|-----------------------------|
---------------------------|-----------------------------|
--10----9----7-------------|--9----7---------------------|
------------------8--------|------------10----7------10--|
---------------------------|-----------------------------|
---------------------------|-----------------------------|


                                                   |----3----|              
    E  E  H        Q       H        H              Q    Q    Q    H         
------------------------|--------------------||----------------------------|
------------------------|--------------------||----------------------------|
--7g9--7--L--------L----|--L-----------------||*--10----9----7-------------|
------------------------|--------------------||*------------------8--------|
------------------------|--------------------||----------------------------|
------------------------|--------------------||----------------------------|


  |-----3----|                                                             
  Q    Q     Q    Q.      E     E  E  H.              H        H           
-----------------------------|---------------------|---------------------||
-----------------------------|---------------------|---------------------||
--9----7---------------------|--9--7--L------------|--L-----------------*||
------------10----7------10--|---------------------|--------------------*||
-----------------------------|---------------------|---------------------||
-----------------------------|---------------------|---------------------||




Duration Legend
---------------
W - whole
H - half
Q - quarter
E - 8th
S - 16th
T - 32nd
X - 64th
. - note dotted
|-n-|  - n-tuplets


Tablature Legend
----------------
L - tied note
x - dead note
g - grace note
(n) - ghost note
> - accentuded note
NH - natural harmonic
AH - artificial harmonic
TH - tapped harmonic
SH - semi harmonic
PH - pitch harmonic
h - hammer on
p - pull off
b - bend
br - bendRelease
pb - preBend
pbr - preBendRelease
brb - bendReleaseBend
\n/ - tremolo bar dip
\n - tremolo bar dive
-/n - tremolo bar Release up
/n\ - tremolo bar inverted dip
/n - tremolo bar return
-\n - tremolo bar Release down
S - shift slide
s - legato slide
/ -  slide into from below or out of upwards
\ -  slide into from above or out of downwards
~ - vibrato
W - wide vibrato
tr - trill
TP - tremolo picking
T - tapping
S - slap
P - pop
< - fade in
^ - brush up
v - brush down
Добавлено: 02.06.2012
Другие материалы по этой песне:
  • Аккорды и текст

Страница создана 02.06.2012
http://primanota.ru/jesse-cook/cancion-triste-chords.htm
Привет, Гость.
Предлагаем пройти революционный курс по гитаре.
Подарок от PrimaNota.Ru, забирай!