PrimaNota.ru - самый крупный в мире бесплатный архив песенных текстов, аккордов, табулатур и нот


Jesse Cook - Querido Amigo Live - таба, видео

Регистрация Запомнить меня
Войти через:  Facebook Google Twitter Vk Yandex Mail.ru

Jesse Cook - Querido Amigo Live - таба, видео

Печатать
Просмотров: 480
		         



			  Querido Amigo (Live Version)
					By                         
				    Jesse Cook

			   Transcribed by Jason Glisson
			     jason.glisson@gmail.com

This is one of my favorite songs by Jesse Cook. It shows his real talent for Spanish guitar. 
Its a tough song but after listening to the recorded a few thousand times, you'll 
get it right. :-)
If anyone has any correction, let me know.

The program I used didn't put all the hammer-on's and pull off's in the right 
place so you'll need to
figure those out by listening to it.


     
E||-------------------|------------------|-----------------|
B||-----------0-------|------------------|----------0------|
G||--------5-------5--|-------4-------4--|----------2------|
D||-----2-------------|--2-------5-------|----------3------|
A||--0----------------|------------------|-------3---------|
E||-------------------|------------------|--1--------------|
   

--------------------|-------------------|---------------------|
--------------------|-----------0-------|---------------------|
--4p-2p-0-----0--2--|--------5-------5--|-------4-------------|
-----------3--------|-----2-------------|--2-------5S----9----|
--------------------|--0----------------|---------------------|
--------------------|-------------------|---------------------|

  
-----------------|---------0-----0-----0-------|-------------------|
----------0------|-------0-----0-----0---------|-----------0-------|
----------2------|--2h-4-----2-----0-----------|--------5-------5--|
----------3------|-----------------------5p-3--|-----2-------------|
-------3---------|-----------------------------|--0----------------|
--1--------------|-----------------------------|-------------------|

  
------------------|-----------------|--------------------|-------------------|
------------------|----------0------|--------------------|-----------0-------|
-------4-------4--|----------2------|--4p-2p-0-----0--2--|--------5-------5--|
--2-------5-------|----------3------|-----------3--------|-----2-------------|
------------------|-------3---------|--------------------|--0----------------|
------------------|--1--------------|--------------------|-------------------|


  
---------------------|-----------------|-----------|-----------1h-3-1-0-1--|
---------------------|----------0------|--0--0--0--|--------3--------------|
-------4-------------|----------2------|--2--2--2--|-----2-----------------|
--2-------5S----9----|----------3------|--3--3--3--|--0--------------------|
---------------------|-------3---------|--3--3--3--|-----------------------|
---------------------|--1--------------|--1--1--1--|-----------------------|

  
--0-----------------|--0----0--0-------|-----------1h-3-1-0-1--|
-----3--0-----------|--0----0--0-------|--------3--------------|
-----------------4--|-------------4----|-----2-----------------|
--------------5-----|------------------|--0--------------------|
--------------------|------------------|-----------------------|
-----------3--------|------------------|-----------------------|

 
--0-----------------|--0--------------------------|---------------------|
-----3--0-----------|--0--------------------------|-----------0---------|
-----------------2--|-----------------------------|--------5-------5h-7-|
--------------3-----|-----------------------------|-----2---------------|
--------------------|-----------------------------|--0------------------|
-----------1--------|-----------------------------|---------------------|

   
---------------------------|-----------------|-------------------|
--------------------0------|-----------------|-----------0-------|
--5/-4p-------------2------|----4p-2-0-------|--------5-------5--|
--------5--------3---------|------------3----|-----2-------------|
---------------------------|-----------------|--0----------------|
------------1--------------|-----------------|-------------------|

  
-------------------------|-----------------|----------------|
-------------------------|----------0------|----------------|
--5h-7-5p-4-5p-4--2p--0--|----------2------|--------4-2-0-2-|
-------------------------|----------3------|--0-2-3---------|
-------------------------|-------3---------|----------------|
-------------------------|--1--------------|----------------|

 
-----------0-------|-----------------|-------------------|------------------|
--------6-------6--|--6h-10-6-5--8---|----------0--------|------------------|
-----7-------------|-----------------|----------4----4S--|--5--5--5--5s--7--|
--0----------------|-----------------|-------5-----------|------------------|
-------------------|-----------------|-------------------|------------------|
-------------------|-----------------|--3----------------|------------------|

  
-------------------|-------------------------|-----------------|
-----------0-------|-------------------------|----------0------|
--------5-------5--|--5h-7-5p-4-5p-4--2p--0--|----------2------|
-----2-------------|-------------------------|----------3------|
--0----------------|-------------------------|-------3---------|
-------------------|-------------------------|--1--------------|

   
----------------|-----------0-------|--------3-5-7--8----|-----------7--|
----------------|--------6-------6--|--3-5-6-------------|--------5-----|
--------4-2-0-2-|-----7-------------|--------------------|------5-------|
--0-2-3---------|--0----------------|--------------------|----5---------|
----------------|-------------------|--------------------|--7-----------|
----------------|-------------------|--------------------|--------------|

    
--------4---4--5-8-8--8--|--12-----|--------------|-------------|
--3-5-6---6--------------|---------|--0-0-0--0----|--1-1-1-0----|
-----------------8-8--8--|---9-----|--1-1-1S-2----|--2-2-2-2----|
-----------------7-7--7--|---9-----|--2-2-2S-3----|--2-2-2-3----|
-------------------------|---------|--2-2-2S-3----|--0-0-0-3----|
----------------------0--|--(0)----|--0-0-0--0----|--0-0-0-1----|


   
--------------------|-------|---------------------|--------0-----------|
--0-0-0-0--1--1-1-1-|--0-0--|---------------------|-----6-----6-----6--|
--1-1-1-2--0--2-2-2-|--2-2--|--2h-4-2p-0-2--4--5--|--7-----------7-----|
--2-2-2-3--2--2-2-2-|--3-3--|---------------------|--------------------|
--2-2-2-3--3--0-0-0-|--3-3--|---------------------|--------------------|
--0-0-0-0--0--0-0-0-|--1-1--|---------------------|--------------------|

  
--------0-----------|--------0-----------|--------------------|
-----6-----6-----6--|-----6-----6-----6--|--------------------|
--6-----------6-----|--5-----------5-----|--0-2-0----0--2--4--|
--------------------|--------------------|--------3-----------|
--------------------|--------------------|--------------------|
--------------------|--------------------|--------------------|


  
--------0-----------|--------0-----------|--------0-----------|
-----5-----5-----5--|-----0-----0-----0--|-----0-----0-----0--|
--5-----------5-----|--4-----------4-----|--0-----------0-----|
--------------------|--------------------|--------------------|
--------------------|--------------------|--------------------|
--------------------|--------------------|--------------------|

  
--------------------|-----------0--------|-----------0--------|
--------------------|--------6-----6-----|--------6-----6-----|
--------------------|-----7-----------7--|-----7-----------7--|
--3-5-3-2--3--5--7--|--8-----------------|--7-----------------|
--------------------|--------------------|--------------------|
--------------------|--------------------|--------------------|


  
-----------0--------|--------------0-----|--------------------|
--------6-----6-----|-----------6-----6--|--------------------|
-----7-----------7--|--------7-----------|--7-----7--------7--|
--6-----------------|-----6--------------|-----6--------6-----|
--------------------|--7-----------------|--------------------|
--------------------|--------------------|-----------0--------|


  
-----0--------------|--------------------|---------------0-----0---|
--6-----6-----------|-----------6--------|-------------0-----0-----|
-----------7-----7--|--------7-----7-----|--7----------------------|
--------------6-----|-----6-----------6--|-------------------------|
--------------------|--------------------|--------7h-8-----7-----5-|
--------------------|--0-----------------|-----0-------------------|


 
----0-----0-----0-----0----|------0-----0-----0-----0-|------0-----0-----0-|
--0-----0-----0-----0------|----0-----0-----0-----0---|----0-----0-----0---|
---------------------------|--------------------------|--------------------|
---------------------------|--------------------------|--------------------|
------3-----2-----3-----3h-|--5-----3-----2-----------|--------------------|
---------------------------|--------------------5-----|--3-----1-----0-----|


   
-------------------------|--------------------------|--------------------------|
-------------------------|------------5-------------|--------------------------|
--0------0----0----0--1--|--------2-5---4-5-4-2-4-2-|--0-2-0----------4-2-0-2--|
--3------3----3----3--2--|------2-------------------|--------2--0-2-3----------|
--3p-2-0-2p-0-0----0--2--|----3---------------------|--------------------------|
--0------0----3p-1-0--0--|--0-----------------------|--------------------------|
  
-------------0--------|-----------5-----5--|-----5-----------3--|
-----------0---0------|--------0-----0-----|--0-----------0-----|
---------4-------4----|-----5--------------|-----------4--------|
-------2-----------2--|--3-----------------|--------2-----------|
----------------------|--------------------|--------------------|
----------------------|--------------------|--------------------|

  
-----3-------------|--------1-3-1-0-1-0-----|-----------0--------|
--0-----0----------|-----3--------------3-0-|--------5-----5-----|
-------------------|--2---------------------|-----0-----------0--|
----------------0--|------------------------|--------------------|
-------------------|------------------------|--3-----------------|
-------------------|------------------------|--------------------|


  
-------------------|--------0-----------|--------------------|
--5----------------|-----3-----3--------|-----------------3--|
-----0-------------|--0-----------0-----|--------------0-----|
----------------3--|-----------------3--|-----3-----3--------|
-------------1-----|--------------------|--1-----1-----------|
-------------------|--------------------|--------------------|

     
--0----------------|-------------------|------------------|-----------------|
-----3-------------|-----------0-------|------------------|----------0------|
--------0----------|--------5-------5--|-------4-------4--|----------2------|
-----------3-------|-----2-------------|--2-------5-------|----------3------|
--------------1----|--0----------------|------------------|-------3---------|
-------------------|-------------------|------------------|--1--------------|

   
--------------------|-------------------|---------------------|
--------------------|-----------0-------|---------------------|
--4p-2p-0-----0--2--|--------5-------5--|-------4-------------|
-----------3--------|-----2-------------|--2-------5S----9----|
--------------------|--0----------------|---------------------|
--------------------|-------------------|---------------------|


  
-----------------|---------0-----0-----0-------|-------------------|
----------0------|-------0-----0-----0---------|-----------0-------|
----------2------|--2h-4-----2-----0-----------|--------5-------5--|
----------3------|-----------------------5p-3--|-----2-------------|
-------3---------|-----------------------------|--0----------------|
--1--------------|-----------------------------|-------------------|
   
------------------|-----------------|--------------------|-------------------|
------------------|----------0------|--------------------|-----------0-------|
-------4-------4--|----------2------|--4p-2p-0-----0--2--|--------5-------5--|
--2-------5-------|----------3------|-----------3--------|-----2-------------|
------------------|-------3---------|--------------------|--0----------------|
------------------|--1--------------|--------------------|-------------------|

    
---------------------|-----------------|----------------|
---------------------|----------0------|--0--0--0-------|
-------4-------------|----------2------|--2--2--2-------|
--2-------5S----9----|----------3------|--3--3--3-------|
---------------------|-------3---------|--3--3--3-------|
---------------------|--1--------------|--1--1--1-------|
 
-------------------------------|--------------------------|
-------------------------------|--------------------------|
--0------0----0----0-0-0-1-----|------0-----0-----0-----0-|
--3------3----3----3-3-3-2-----|----3-----3-----3-----3---|
--3p-2-0-2p-0-0----0-0-0-2-----|--------------------------|
--0------0----3p-1-0-0-0-0-----|--5-----3-----5-----3-----|

 
-----------------------|--------------------------|--------------------------|
-----------------------|--------------------------|--------------------------|
------0----------0-----|--0-----0-----0-----0-----|--0-----0-----0-----0-----|
----3----------3-----3-|------3-----3-----3-----3-|------3-----3-----3-----3-|
-------------3-----2---|----0-----5-----3-----2---|----3-----2-----0-----2---|
--1-----0--------------|--------------------------|--------------------------|

  
-----------------------|--------------------------|--------------------|
-----------------------|--------------------------|--------------------|
--0-0-0--------0-----0-|------0-----0-----0-----0-|------0-----0-----0-|
----3-3------3-----3---|----3-----3-----3-----3---|----3-----3-----3---|
----2-2----2-----0-----|--------0-----------------|--------------------|
----3-3----------------|--3-----------3-----1-----|--3-----1-----0-----|


    
------------------------------|-------------------------|--------------|
---9--9--9---9-----9--9--9--9-|---9--9-----9--9---------|--0-0-0--0----|
--10-10-10--10----10-10-10-10-|--10-10----10-10---------|--1-1-1S-2----|
---9--9--9---9-----9--9--9--9-|---9--9-----9--9---------|--2-2-2S-3----|
---7--7--7---7-----7--7--7--7-|---7--7-----7--7---------|--2-2-2S-3----|
---0--0--0---0-----0--0--0--0-|---0--0-----0--0---------|--0-0-0--0----|


    
-------------|--------------------|-------|----------------------||
--1-1-1-0----|--0-0-0-0--1--1-1-1-|--0-0--|----------------------||
--2-2-2-2----|--1-1-1-2--0--2-2-2-|--2-2--|----------------------||
--2-2-2-3----|--2-2-2-3--2--2-2-2-|--3-3--|--6--6--6-6-6-6-------||
--0-0-0-3----|--2-2-2-3--3--0-0-0-|--3-3--|--7--7--7-7-7-7--7----||
--0-0-0-1----|--0-0-0-0--0--0-0-0-|--1-1--|--4--4--4-4-4-4/-5----||





Добавлено: 17.05.2012
Другие материалы по этой песне:
  • Аккорды и текст

Страница создана 17.05.2012
http://primanota.ru/jesse-cook/querido-amigo-live-chords.htm
Привет, Гость.
Предлагаем пройти революционный курс по гитаре.
Подарок от PrimaNota.Ru, забирай!