PrimaNota.ru - самый крупный в мире бесплатный архив песенных текстов, аккордов, табулатур и нот


Jesse Cook - Fragile - аккорды и текст, таба, видео

Регистрация Запомнить меня
Войти через:  Facebook Google Twitter Vk Yandex Mail.ru

Jesse Cook - Fragile - аккорды и текст, таба, видео

Печатать
Просмотров: 534
Авторы музыки: Sting
Авторы текста: Sting
Fragile
Jesse Cook
		   t. See http://www..net/faq/ for more information.                     #
#-----------------------------------------------------------------------------#



fragile by jesse cook
from album vertigo (99)
transcribed by ryan dunn

------------------------------
----------------------------3-
------------3-2-3---3-2-5-3---
-3/5----3-5-------5-----------
-3/5--6-----------------------
------------------------------

-------3'5'3---3/5-5/6-6/8-8/10
---4-3-------6-----------------
-5-----------------------------
-------------------------------
-------------------------------
-------------------------------

-10-10-10-----------------8-8-10
-----------------10-11-11-------
--------------11----------------
-----------12-------------------
--------------------------------
--------------------------------

-10-8~10-----6-5-8-6-10-8-10/11-
-----------8--------------------
---------7----------------------
--------------------------------
--------------------------------
--------------------------------

-11-13-13-13-11-10-8----8-------
---------------------11---10----
--------------------------------
--------------------------------
--------------------------------
--------------------------------

that's all i can get from the solo right now
i'll post more if i take some more time to do it!     
Добавлено: 01.12.2013
Другие материалы по этой песне:
  • Аккорды и текст

Страница создана 22.07.2012
http://primanota.ru/jesse-cook/fragile-chords.htm
Привет, Гость.
Предлагаем пройти революционный курс по гитаре.
Подарок от PrimaNota.Ru, забирай!