PrimaNota.ru - самый крупный в мире бесплатный архив песенных текстов, аккордов, табулатур и нот


Jerry Reed - Two Timin - таба, видео

Регистрация Запомнить меня
Войти через:  Facebook Google Twitter Vk Yandex Mail.ru

Jerry Reed - Two Timin - таба, видео

Печатать
Просмотров: 123
TWO TIMIN
Jerry Reed

 | 1 + 2 + 3 + 4 + | 1 + 2 + 3 + 4 + | 1 + 2 + 3 + 4 + | 1 + 2 + 3 + 4 + |

E|-2---2---2---2---|-2---2---2---2---|-2---2---2---2---|-2---2---2---2---|
B|-1---1---1---1---|-1---1---1---1---|-1---1---1---1---|-1---1---1---1---|
G|-----------------|-----------------|---1-------------|---1-------------|
D|-----------------|-----------------|-------4---------|-------4---------|
A|-----------------|-----------------|-----------------|-----------------|
E|-----------------|-----------------|-4---------2---3-|-4---------2---3-|

                                       $
 | 1 + 2 + 3 + 4 + | 1 + 2 + 3 + 4 + || 1 + 2 + 3 + 4 +    | 1   + 2 + 3 + 4 + |

E|-2---2---2---2---|-2---------------||-------------7-9/12-|-3h4---------------|
B|-1---1---1---1---|-1-------5-------||-7-----7-8-9--------|-----2---5---------|
G|---1-------------|---------5-------||.--8-9--------------|---------3---------|
D|-------4---------|-----------------||.-------------------|-------------2-----|
A|-----------------|-----------------||--------------------|-2-------------4---|
E|-4---------2---3-|-4-----------7-8-||-9-------8----------|-------0-2-------4-|

 | 1 + 2 + 3 + 4 + | 1 + 2 + 3 + 4 + | 1 + 2 + 3 + 4 + | 1   + 2 + 3 + 4 + |

E|---4---------4-7-|-----------------|-------------7-9-|-3h4---7-6---------|
B|-7---7-5---7-----|-7-5-4-2---4-----|-7-----7-8-9-----|-----2-----------2-|
G|-------5---------|-------------5---|---8-9-----------|-----------------2-|
D|-----------------|---------------6-|-----------------|-------------------|
A|-0---------------|-4---2---0-------|-----------------|-2-----------------|
E|---------4-------|-------------4---|-9-------8-------|-------0-2---2-4---|

            To Coda                                      Solo: 1:48
 | 1 + 2 + 3 + 4 + | 1 + 2 + 3 + 4 + || 1 + 2 + 3 + 4 + | 1 + 2 +  3 + 4 + |
                   |1.                |2.               |
E|-----------------|-----------------||-----------9-8-7-|(7)---------7-----|
B|(2)----------2---|-----7-5---------||-----7-5---------|--------8/9---9---|
G|(2)------2-4-----|-5-----6--------.||-5-----6---------|------------------|
D|---1-2-----------|-6-----6--------.||-6-----6---------|-------9----------|
A|-0-----0---------|---6-3-4---------||---6-3-4---------|------------------|
E|---------2---3---|-4---------7-8---||-4---------------|-7----------------|

 | 1 + 2 + 3 + 4 + | 1 + 2 + 3 + 4 + | 1 + 2 + 3 + 4 + | 1 + 2 + 3 + 4 + |

E|-8-----8-----8---|-7-----7-----7---|---7---7---------|-6---------------|
B|-7-----7-----7---|-6-----6-----6---|---6---6---------|-----6-7---7-----|
G|---------8-------|---------8-------|-8---------------|---------6---6-5-|
D|-6-8-7-6---8-6---|-6-8-7-6---8-6-8-|---8-7-6---------|-4-6-7-8---------|
A|-----------------|-----------------|-----------------|-------------7-6-|
E|-----------------|-----------------|-----------------|-----------------|

 | 1 + 2 + 3 + 4 + | 1     + 2 + 3    + 4 + | 1 + 2 + 3 + 4  +  | 1   +  2 + 3 + 4 + |

E|-----------2-4-2-|-7p5p4h5---4------------|---------7-9-10-11-|(11)-10-9-7-6-7-----|
B|-----6-7---------|---------6---7p5p4--4-0-|(0)2-3-4-----------|--------------------|
G|-4-6-------------|-4----------------7-----|-----------9-10-11-|(11)-10-9-8-7-8-----|
D|-----------------|------------------------|-------------------|--------------------|
A|-----5-4---------|------------------------|-2-----------------|--------------------|
E|-------------2---|------------------------|-------------------|-7------------------|

 | 1 + 2 + 3 + 4 + | 1 + 2 + 3 + 4 + | 1 + 2 + 3 + 4 + | 1 + 2 + 3 + 4 + |

E|-8-----8-----8---|-7-----7-----7---|---7---7---------|-6---------------|
B|-7-----7-----7---|-6-----6-----6---|---6---6---------|-----6-7---7-----|
G|-------8---------|-----------------|-----------------|---------6---6-5-|
D|-6-8-7-----6-8---|-6-8-7-6---6-----|-6-8-7-6---------|-4-6-7-8---------|
A|-----------------|---------7-------|-----------------|-------------7-6-|
E|-----------------|-----------------|-----------------|-----------------|

                                            D.S. al Coda  &
 | 1 + 2 + 3 + 4 + | 1 + 2 +  3 + 4 + | 1 + 2 + 3 + 4 + || 1 + 2 + 3 + 4 + |

E|-----------2-4-7-|(7)---------------|-----------------||-----------------|
B|-----6-7---------|-------10-9-----9-|-7-------7-------||-----7-5---------|
G|-4-6-------------|---8--------------|-8-------5-------||-5-----6---------|
D|-----------------|-----11-----9-7---|-7---------------||-6-----6---------|
A|-----5-4---------|------------------|-----------------||---6-3-4---------|
E|-------------2---|-7----------------|-7-------4---7-8-||-6---------------|

 | 1 + 2 + 3 + 4 + | 1 + 2 + 3 + 4 + | 1 + 2 + 3 + 4 + | 1 + 2 + 3 + 4 + |

E|-2---2---2---2---|-2---2---2---2---|-2---2---2---2---|-2---2---2---2---|
B|-1---1---1---1---|-1---1---1---1---|-1---1---1---1---|-1---1---1---1---|
G|-----------------|-----------------|---1-------------|---1-------------|
D|-----------------|-----------------|-------4---------|-------4---------|
A|-----------------|-----------------|-----------------|-----------------|
E|-----------------|-----------------|-4---------2---3-|-4---------2---3-|

 | 1 + 2 + 3 + 4 + | 1 + 2 + 3 + 4 + | 1 + 2 + 3 + 4 + | 1 + 2 + 3 +    4   ||

E|-2---2---2---2---|-----------------|-----------------|-----9-7------------||
B|-1---1---1---1---|-7-5-4-2---4-----|-5-5-7-5-9b7h5---|-7/9-----9-9p7p5----||
G|---1-------------|-------------5^6-|-6-------------6-|----------------4/6-||
D|-------4---------|-----------------|-6---------------|--------------------||
A|-----------2---3-|-4---2---0-------|-4---------------|--------------------||
E|-4---------------|-------------4---|-----------------|--------------------||

Key:
$ = Segno
& = Coda
h = Hammer on
p = Pull off
b = Bend
/ = Slide
^ = Trill

The solo is the B section, 2nd time round, from 1:48.

Transcribed by Deadhbh Harrington
phunkied@hotmail.com
Добавлено: 04.07.2012
Другие материалы по этой песне:
  • Аккорды и текст

Страница создана 04.07.2012
http://primanota.ru/jerry-reed/two-timin-chords.htm
Привет, Гость.
Предлагаем пройти революционный курс по гитаре.
Подарок от PrimaNota.Ru, забирай!