PrimaNota.ru - самый крупный в мире бесплатный архив песенных текстов, аккордов, табулатур и нот


Jerry Reed - The Claw - таба, видео

Регистрация Запомнить меня
Войти через:  Facebook Google Twitter Vk Yandex Mail.ru

Jerry Reed - The Claw - таба, видео

Печатать
Просмотров: 223
Tabbed By: Lucas Van Niekerk
E-mail: master_powlith@yahoo.com
Song: The Claw
Artist: Jerry Reed

A very old, but great song. This whole piece is just repeated over and over throughout 
song. You will have to listen to it to get the rhythms, etc. right.

Intro:

e|-------------5--5-5-----------|
B|---------5-7-5---------5-6----|
G|---4-5-6--------8-7----5-5----|
D|-7-------------------7--------|
A|------------------------------|
E|------------------------------|

Pre-Chorus:

e|------------------------------------------------------|
B|------------------------------------------------------|
G|-----5--6----------0----------------------------------|
D|-7---4--7\5--7-----1--0--0----------------------------|
A|---------------0--------3--3-0-------0-2-0-3p2p0------|
E|---0---------------------------0---2-------------2-0--|

Chorus:

       A7                                  A7
e|------------------------------------------------------------------------|
B|-----2-----1------2----------------------2-----1------2-----------------|
G|---0---0-------0-----------------------0---0-------0-------2p0----------|
D|-----2-------2--------2p0----------------2------2-------------3p2p0-----|
A|-0----------------0------3p2p0------0-----------------0------------2-0--|
E|---------0--------------------2-0------------0--------------------------|

       D7
e|-----2-----1------2----------------|
B|---1---1-------1-------------------|
G|-----2-------2---------------------|
D|-0----------------0---2p0----------|
A|---------0---------------3p2p0-----|
E|------------------------------2-0--|

Outro:
       A7                           Dm(shape) D7
e|--------------------------------------------2----|
B|-----2-----1------2----------------3----3-3-1----|
G|---0---0-------0-------------------1----1-1-2----|
D|-----2-------2--------2p0----------2----2-2------|
A|-0----------------0------3p2p0-------------------|
E|---------0--------------------2-0----------------|

End On:

   A

e|-0--|
B|-2--|
G|-2--|
D|-2--|
A|-0--|
E|----|

Legend:
| /  slide up
| \  slide down
| h  hammer-on
| p  pull-off
| ~  vibrato
| +  harmonic
| x  Mute note

Enjoy!
Добавлено: 05.07.2012
Другие материалы по этой песне:

Страница создана 19.05.2012
http://primanota.ru/jerry-reed/the-claw-chords.htm
Привет, Гость.
Предлагаем пройти революционный курс по гитаре.
Подарок от PrimaNota.Ru, забирай!