PrimaNota.ru - самый крупный в мире бесплатный архив песенных текстов, аккордов, табулатур и нот


Jerry Reed - Bluesland - таба, видео

Регистрация Запомнить меня
Войти через:  Facebook Google Twitter Vk Yandex Mail.ru

Jerry Reed - Bluesland - таба, видео

Печатать
Просмотров: 161
BLUESLAND
Jerry Reed

 | 1 + 2 + 3 + 4 + | 1 + 2 + 3 + 4 + | 1 + 2 + 3 + 4 + | 1 + 2 + 3 + 4 +  |

E|-----------------|-----------------|-----------------|------------------|
B|---3---3---3---3-|-3-0---3---3-----|---3---3---3---3-|-3-0---3---2------|
G|---4---4---2---2-|-4-1---4---3-----|---4---4---2---2-|-4-1---4---3------|
D|---4---4---4---4-|---0---3---2-----|---4---4---4---4-|---0---3---2------|
A|-2-------0-------|-----------------|-2-------0-------|---------------1/-|
E|-----------------|-4-0---3---2-----|-----------------|-4-0---3---2------|
   $
 || 1 + 2 + 3 +  4 + | 1  +  2 + 3 + 4 + | 1 + 2 + 3 +  4 +   | 1 + 2 + 3 + 4  +  |

E||------------------|-------------------|----------------1p0-|-------------------|
B||-------2-3-3p2----|---0---------------|-------2-3-5p3------|---3---------------|
G||.----4--------4-2-|-4---2-------------|-----4--------4-----|-----4-------------|
D||.--4--------------|-------4-0-2-3-2-0-|---4----------------|-------3-2-0-2h4-0-|
A||-2-------0--------|-------------------|-2-------0----------|-------------------|
E||------------------|-4---------3---2---|--------------------|-4-------3---2-----|

                                   To Coda
 | 1 + 2 + 3 +    4 + | 1  +  2 + 3 + 4 + | 1 + 2 +   3   +  4 +   | 1 +   2 + 3 + 4 +  ||
                                                                   |1.                  |
E|----------------6-7-|-------------0---7-|---7--------------------|--------------------||
B|-------2-3h5p3------|---7---5-0-3-------|---6-5-3h4h5p3p0--0-0---|-------------5------||
G|-----4--------4-----|-----7-------4-----|---7------------2---2/4-|---0---------------.||
D|---4----------------|-------------------|------------------------|----0--------2-0---.||
A|-2-------0----------|-------------------|------------------------|-----0---0-2-----1/-||
E|--------------------|-4-------0-4-----7-|------------------------|-------2------------||

 | 1 +   2 + 3 + 4 + | 1   + 2 + 3  + 4 + | 1   + 2 + 3   + 4 +  | 1 + 2 + 3 + 4 + |
 |2.               
E|---------------0---|-1/2------------0---|-----5-5-7------------|---5-------5---0-|
B|-------------3-----|-2/3-0-----2/3--3---|-6/7-------6p5--------|---6h7-----6h7---|
G|---0---------4-----|-3/4-0-----3/4--4---|-5/6-----------2-4-2--|-------2---------|
D|----0--------------|-----0-----4/5------|-4/5---------------3h-|-4-----3h4-------|
A|-----0---0-2-------|------------------0-|----------------------|-----------------|
E|-------2-----------|--------------------|----------------------|-----------------|

 | 1 + 2 + 3 + 4 + | 1   + 2 + 3  + 4 + | 1   + 2 + 3   + 4 +  | 1 + 2 + 3 + 4 + |

E|-5-----3---5-----|-1/2------------0---|-----5-5-7------------|---5-------5---3-|
B|-4---0-4---------|-2/3-0-----2/3--3---|-6/7-------6p5--------|---6h7-----6h7---|
G|---5---2---------|-3/4-0-----3/4--4---|-5/6-----------2-4-2--|-------2---------|
D|-----------------|-----0-----4/5------|-4/5---------------3h-|-4-----3h4-------|
A|-----------------|------------------0-|----------------------|-----------------|
E|---------------0-|--------------------|----------------------|-----------------|

            D.S. al Coda
 | 1  +  2 + 3  +  4 +  ||

E|-------5-2------------||
B|-----5-----------5----||
G|---4-----------3------||
D|-------------2--------||
A|-4-----------------1/-||
E|-----------2----------||
   &
 || 1 + 2 + 3 + 4 + | 1 + 2 + 3  + 4 + | 1 + 2 + 3 + 4 + | 1 + 2 + 3 + 4 + ||

E||---7-----------7-|-6---0---10-7---2-|-----------------|-7---------------||
B||---6-5-3---3-6---|---3-2/--7--7---3-|---3---3---3/----|-7---------------||
G||---7-----4-------|---------7--7---4-|---4---4---3/----|-7---------------||
D||-----------------|------------------|---4---3---2-----|-----------------||
A||-----------------|------------------|-----------------|-----------------||
E||-----------------|------------------|-----------------|-7---------------||

Key:
$ = Segno
& = Coda
h = Hammer on
p = Pull off
/ = Slide

Transcribed by Deadhbh Harrington
phunkied@hotmail.com

Добавлено: 07.04.2012
Другие материалы по этой песне:
  • Аккорды и текст

Страница создана 07.04.2012
http://primanota.ru/jerry-reed/bluesland-chords.htm
Привет, Гость.
Предлагаем пройти революционный курс по гитаре.
Подарок от PrimaNota.Ru, забирай!