PrimaNota.ru - самый крупный в мире бесплатный архив песенных текстов, аккордов, табулатур и нот


Jerry Reed - Hallelujah I Love Her So - текст песни, таба, видео

Регистрация Запомнить меня
Войти через:  Facebook Google Twitter Vk Yandex Mail.ru

Jerry Reed - Hallelujah I Love Her So - текст песни, таба, видео

Печатать
Просмотров: 163
Уроки эстрадного вокала в Санкт-Петербурге
As recorded by Jerry Reed

Words and Music by Ray Charles
Arranged by Jerry Reed
Transcribed by seljer

           F                  F7/A                  Bb7                  C7
      1 3 3 2 1 1          x 0 3 5 4 5          x 1 3 1 3 1          x 3 2 3 1 0

          Bb                   Ab                  Bm7b5                 A7
      x 1 3 3 3 1          x x 1 1 1 x          x 2 3 2 3 x          x 0 2 0 2 0

          B7
      x 2 1 2 0 2

Gtr I (E A D G B E) - 'Jerry Reed'

  Q=110(8=s8)
                   F                Bb
 4/4
  Gtr I
  H    E E E E     Q  E E E E E E   E Q  E E E E E
|--------------||-----1-----------|-1-3--1----------||
|--------------||o----1-3-1-------|-3-3--3---------o||
|--------------||-----2-----2-----|-----------------||
|--------------||-----3-------3-0-|-----------------||
|--------0-1-2-||o-3--------------|----------0-1-2-o||
|--------------||-----------------|-----------------||


  F               Bm7b5     Bb   F
  Q  E E E Q  E    E  E E E E Q  E
|----1---0-1----|--4--3-1---1-1-----|
|----1---0-1----|---------3-3-3--1--|
|----2----------|-------------3--2--|
|------0--------|----------------3--|
|-3-------------|-----0-1-2-3-3--3--|
|-------------3-|-(3)------------1--|


              C7   F          B7  C7
        |-3-|
  +E  E E E E E Q  E   +Q   E E E  Q.
|-------5-------3--1-|-(1)----7----8----|
|-(1)-----6---6------|--------7---11----|
|-(2)-5-----7-4-3--2-|-(2)----8----9----|
|-(3)----------------|--------9---10----|
|-(3)----------------|------------------|
|-(1)----------------|--------7----8----|


    F           F7/A          Bb7     C7   BbAb
    E  e  e  e  E  e  e  e    E e e e  E e E E
||--------------------------|--------------1----||
||o----1-----1-----4-----4--|---3---3----x-3-1-o||
||-----2--x--2-----5--x--5--|---1-x-1----x-3-1--||
||----(3)-x-(3)---(3)-x-(3)-|---3-x-3----x-3-1--||
||o-------x-----0-----x-----|-1---x---/3-------o||
||--1-----------------------|-------------------||


  F                       A7    Bb7         Bm7b5
  E E Q  H      E E Q  E  Q.    E E Q  H    e q  E +E  Q  E
|-1-----------|---------------|-----------|-------------------|
|-1-----------|-4---------8---|-6---------|-3-6--9-(9)----x---|
|-2-----------|-5---------6---|-7---------|-2-5--7-(7)----x---|
|-3-----------|-3---------5---|-6---------|-3-6--9-(9)----x---|
|-3-----------|-3---------7---|-----------|-2-5--8-(8)--------|
|-1-----------|---------------|-6---------|-------------------|


  F           F7/A          Bb7     Bm7b5
  E  e  e  e  E  e  e  e    E e e e E e E E
|-------------------------|-----------------|
|----1-----1-----4-----4--|---3---3---3-----|
|----2--x--2-----5--x--5--|---1-x-1---2-x---|
|---(3)-x-(3)---(3)-x-(3)-|---3-x-3---3-x---|
|-------x-----0-----x-----|-1---x---2---x---|
|-1-----------------------|---------------3-|


            Bb   F
   E  E E E E Q  E   +E  Q  e Q  q
|--4--3-1---1-1----|-------13----1---*|
|---------3-3-3--1-|-(1)---13----1---*|
|-------------3--2-|-(2)---------2---*|
|----------------3-|-(3)---------3---*|
|-----0-1-2-3-3--3-|-(3)---------3---*|
|-(3)------------1-|-(1)-------------*|


Duration Legend
---------------
W - whole; H - half; Q - quarter; E - 8th; S - 16th; T - 32nd; X - 64th; a - acciaccatura
+ - note tied to previous; . - note dotted; .. - note double dotted
Uncapitalized letters represent notes that are staccato (1/2 duration)
Irregular groupings are notated above the duration line
Duration letters will always appear directly above the note/fret number it represents the
duration for.  Duration letters with no fret number below them represent rests.  Multi-
bar rests are notated in the form Wxn, where n is the number of bars to rest for.  Low
melody durations appear below the staff

Tablature Legend
----------------
 h   - hammer-on
 p   - pull-off
 b   - bend
 pb  - pre-bend
 r   - bend release (if no number after the r, then release immediately)
 /\  - slide into or out of (from/to "nowhere")
 s   - legato slide
 S   - shift slide
  - natural harmonic
[n]  - artificial harmonic
n(n) - tapped harmonic
 ~   - vibrato
 tr  - trill
 T   - tap
 TP  - trem. picking
 PM  - palm muting
\n/  - tremolo bar dip; n = amount to dip
 \n  - tremolo bar down
 n/  - tremolo bar up
/n\  - tremolo bar inverted dip
 =   - hold bend; also acts as connecting device for hammers/pulls
 <>  - volume swell (louder/softer)
 x   - on rhythm slash represents muted slash
 o   - on rhythm slash represents single note slash

Misc Legend
-----------
 |  - bar
||  - double bar
||o - repeat start
o|| - repeat end
*|  - double bar (ending)
 :  - bar (freetime)
 $  - Segno
 &  - Coda
Tempo markers -  = BPM(8/16=s8/s16), where s8 = swing 8ths, s16 = swing 16ths

Добавлено: 23.07.2015
Другие материалы по этой песне:

Страница создана 27.02.2012
http://primanota.ru/jerry-reed/hallelujah-i-love-her-so-chords.htm
Привет, Гость.
Предлагаем пройти революционный курс по гитаре.
Подарок от PrimaNota.Ru, забирай!