PrimaNota.ru - самый крупный в мире бесплатный архив песенных текстов, аккордов, табулатур и нот


Jerry Reed - Swingin 69 - таба, видео

Регистрация Запомнить меня
Войти через:  Facebook Google Twitter Vk Yandex Mail.ru

Jerry Reed - Swingin 69 - таба, видео

Печатать
Просмотров: 117
SWINGIN' 69
Jerry Reed

 | 1 + 2 + 3 + 4 + | 1 + 2 + 3 + 4 + | 1 + 2 + 3 + 4   + | 1 + 2 + 3 + 4 + |

E|-----------------|-7---------6-5-3-|-3---1-------------|-----------------|
B|-----------3-5-8-|---8-5-----------|-------3-1---------|-----3-5-3-------|
G|-----------2-5-6-|-7-6-5-7-6-6-7---|-0---------3-5p3---|-3h4-----5-------|
D|-----------------|-------8-7-------|-----------------5-|---------4-5-5-5-|
A|-----------------|-----------------|-----2---3---5-----|---------5-------|
E|-----------------|-----------------|---3---------------|-3---------------|
  $
 | 1 + 2 + 3 + 4 + | 1 + 2 + 3 + 4 + | 1 + 2 + 3 + 4 + | 1 +  2 + 3 + 4 + |

E|-7---6-----------|-3-0---0---------|-----0-------3-3-|---10-8-6-7-------|
B|-----5---8---5---|-----4-----3-----|---------3-------|-----------8--5-8-|
G|-7-----7-5---5---|-4-3-2-1---------|-2-0-------2-3-4-|------------7-5---|
D|-----------0---8-|-----------------|-------3-4-------|------------------|
A|-----------------|-------------2-3-|-4---------------|------------------|
E|-----------------|-----------------|-----------------|------------------|

 | 1 + 2 + 3 + 4 + | 1 + 2 + 3 + 4 + | 1 + 2 + 3 + 4 + | 1 + 2 + 3 + 4 + |

E|-7---6-----------|-3-0---0---------|-----5-3---------|-----------------|
B|-----5---8---5---|-----4-----3-----|---------6-3---3-|-------3---------|
G|-7-----7-5---5---|-4-3-2-1---------|-2-0-2-------4-5-|-------5---------|
D|-----------0---8-|-----------------|---------4---5---|-0-2-3-4---5-5-5-|
A|-----------------|-------------2-3-|-4---------------|-----------------|
E|-----------------|-----------------|-----------------|-----------------|

 | 1 + 2 + 3 + 4 + | 1 + 2 + 3 + 4 + | 1 + 2 + 3 + 4 + | 1 + 2 + 3 + 4 + |

E|-7---6-5-3-------|-----------------|-6---------0-----|-----------------|
B|-5---------------|-----------------|-5-----5/8-------|-------8-----5-8-|
G|---7-6-5-4-----3-|-----2-0---------|---7-6-5/8---5---|-------6---7-----|
D|-----------5-3-2-|-0---2-0---------|-----------------|---5-6-7---------|
A|-----------------|---4-3-2---5-5-5-|---------------6-|-7---------------|
E|-----------------|-----------------|-----------------|-----------------|

                                                To Coda
 | 1 + 2 + 3 + 4 + | 1 + 2 + 3 + 4 + | 1 + 2 + 3 + 4 + | 1 + 2 + 3 + 4 + |

E|-7---6-----------|-3-0---0---------|-----0-------3-3-|(3)--3-5-6-7---8-|
B|-----5---8---5---|-----4-----3-----|---------3-------|-----------------|
G|-7-----7-5---5---|-4-3-2-1---------|-2-0-------2-3-4-|(4)--4-5-6-7---9-|
D|-----------0---8-|-----------------|-------3-4-------|-----------------|
A|-----------------|-------------2-3-|-4---------------|-----------------|
E|-----------------|-----------------|-----------------|-----------------|

 | 1 + 2 + 3 + 4 + | 1 + 2 + 3 + 4 + | 1 + 2 + 3 + 4 + | 1 + 2 + 3 + 4 + |

E|(8)--6-----------|-----------------|-----------------|-----------------|
B|---------5-8-6---|-5-----5---------|---------------5-|---5---6---6---5-|
G|(9)--7-6-5-----8-|-5-----6---------|-4---4-5-6-7---5-|---3---7---8---3-|
D|-------------7---|---5-7-8-5-7-5---|-3---5-7-8-9---5-|---5---5---7---5-|
A|-----------------|---------------7-|-5---5-6-7-8---3-|---4---5---6---3-|
E|-----------------|-------------6---|-3---3-5-6-7-----|-----------------|

                                                              D.S. al Coda
 | 1  + 2 + 3 + 4 + | 1 + 2 + 3 + 4 + | 1 + 2 + 3 + 4 + | 1 + 2 + 3 + 4 + ||

E|------6-----------|-----------------|-----------8-7---|-10--8-6-7-------||
G|(5)---3---5-8-6---|-5-----5---------|-0-2-3-5-8-----8-|----------8--5-8-||
B|(3)-----6-5-----8-|-5-----6---------|-0-3-4-5-7-------|---7-------7-5---||
D|(5)-5---------7---|---5-7-8-5-7-5---|-0-4-5---6-------|-----------------||
A|(3)---------------|---------------7-|-2---------------|-----------------||
E|------------------|-------------6---|-3---------------|-----------------||

   &
  | 1 + 2 + 3 + 4 + | 1 + 2 + 3 + 4 + |

E||(3)--------------|-------3-----7---|
B||---------------5-|---5---3-----6---|
G||(4)--4-5-6-7---5-|---3---4-----7---|
D||-----5-7-8-9---5-|---5---5-----5---|
A||-----5-6-7-8---3-|---4---5---------|
E||-----3-5-6-7-----|-----------------|

Key:
$ = Segno
& = Coda
h = Hammer on
p = Pull off
b = Bend
/ = Slide

Transcribed by Deadhbh Harrington
phunkied@hotmail.com

Добавлено: 07.04.2012
Другие материалы по этой песне:

Страница создана 23.02.2012
http://primanota.ru/jerry-reed/swingin-69-chords.htm
Привет, Гость.
Предлагаем пройти революционный курс по гитаре.
Подарок от PrimaNota.Ru, забирай!