PrimaNota.ru - самый крупный в мире бесплатный архив песенных текстов, аккордов, табулатур и нот


Jeremy Soule - The Dragonborn Comes - текст песни, таба, видео

Регистрация Запомнить меня
Войти через:  Facebook Google Twitter Vk Yandex Mail.ru

Jeremy Soule - The Dragonborn Comes - текст песни, таба, видео

Печатать
Просмотров: 2136
Уроки эстрадного вокала в Санкт-Петербурге
A friend of mine wrote this tab i hope it's right have fun with it :P

E|----------------------------------------------------------------------------|
B|----------------------------------------------------------------------------|
G|-------------------0---------------------------------0----------------------|
D|----0-0-2-3-3----3---2-0---0----------0-0-2-3-3----3---2-0---0--------------|
A|--0----------------------3----------0----------------------3----------------|
E|----------------------------------------------------------------------------|


E|----------------------------------------------------------------------------|
B|----------------------------------------------------------------------------|
G|-2-2-2----------------------------------------------------------------------|
D|--------0-2-3-3----3-2-0---0--0----2-3---3-2-0---0----3-2-3---3-2-3---------|
A|-------------------------3------0--------------3----------------------------|
E|----------------------------------------------------------------------------|


E|----------------------------------------------------------------------------|
B|--------------------------------------------------------------1-------------|
G|-----0-------------------------------------------------0-2--2---0-----------|
D|-2-3---3-2-0---0---0--0---0------0-2-3-2-0---0-2-3-3-3------------3-2-0-----|
A|-----------------3------3------3--------------------------------------------|
E|----------------------------------------------------------------------------|


E|----------------------------------------------------------------------------|
B|-------------------------------------------------1--------------------------|
G|-----------------------------------------0-2---2---0------------------------|
D|--0---0--0---0-----0-2-3-2-0---0-2-3---3--------------3-2-0--0-2-3----------|
A|----3------3-----3----------------------------------------------------------|
E|----------------------------------------------------------------------------|


E|--------------------0--------0-1-0------------------------------------------|
B|------------1-3---1---3----3-------3-1--------------------------------------|
G|----0-2---2-----------------------------3-2-0------2-0----------------------|
D|--3----------------------------------------------3--------3-2-0-------------|
A|----------------------------------------------------------------------------|
E|----------------------------------------------------------------------------|
Добавлено: 30.08.2013
Другие материалы по этой песне:
  • Аккорды и текст

Страница создана 30.08.2013
http://primanota.ru/jeremy-soule/the-dragonborn-comes-chords.htm
Привет, Гость.
Предлагаем пройти революционный курс по гитаре.
Подарок от PrimaNota.Ru, забирай!