PrimaNota.ru - самый крупный в мире бесплатный архив песенных текстов, аккордов, табулатур и нот


Jeremy Soule - Nerevar Rising Morrowind Theme - таба, видео

Регистрация Запомнить меня
Войти через:  Facebook Google Twitter Vk Yandex Mail.ru

Jeremy Soule - Nerevar Rising Morrowind Theme - таба, видео

Печатать
Просмотров: 1123
Уроки эстрадного вокала в Санкт-Петербурге
Nerevar rising (morrowind theme) By Jeremy Soule


-|-------------------------------------------------------------------------|-
-|--------------------------11---------------------------------------------|-
-|----7-8----8--10--12--12-----10—12p10--8--7------------------------------|-
-|-10------------------------------------------10--------------------------|-
-|-------------------------------------------------------------------------|-
-|-------------------------------------------------------------------------|-

-|-------------------------------------------------------------------------|-
-|--------------------------11--13--11--15--13----13--15--16--15--13--11-10|-
-|----7-8----8--10--12--12-------------------------------------------------|-
-|-10----------------------------------------------------------------------|-
-|-------------------------------------------------------------------------|-
-|-------------------------------------------------------------------------|-

-|-------------------------------------------------------------------------|-
-|-----------8-------------------------------------------------------------|-
-|-12--10--8---10—-8--7----------------------------------------------------|-
-|----------------------10-------------------------------------------------|-
-|-------------------------------------------------------------------------|-
-|-------------------------------------------------------------------------|-
Добавлено: 06.08.2013
Другие материалы по этой песне:
  • Аккорды и текст

Страница создана 06.08.2013
http://primanota.ru/jeremy-soule/nerevar-rising-morrowind-theme-chords.htm
Привет, Гость.
Предлагаем пройти революционный курс по гитаре.
Подарок от PrimaNota.Ru, забирай!