PrimaNota.ru - самый крупный в мире бесплатный архив песенных текстов, аккордов, табулатур и нот


Jeremy Soule - Skyrim - From Past To Present - таба, видео

Регистрация Запомнить меня
Войти через:  Facebook Google Twitter Vk Yandex Mail.ru

Jeremy Soule - Skyrim - From Past To Present - таба, видео

Печатать
Просмотров: 451
     H        Q    Q       E  E  H.              H        Q    Q     
E||----------------0----|---------------------|----------------0----|
B||-----------6---------|--------3------------|-----------6---------|
G||--7------------------|--5--4---------------|--7------------------|
D||--7------------------|--5------------------|--7------------------|
A||---------------------|---------------------|---------------------|
D||---------------------|---------------------|---------------------|


  E  E  H.              H        Q    Q       E  E  H.            
---------------------|----------------0----|---------------------|
-----0--L------------|-----------6---------|--------3------------|
--5------------------|--7------------------|--5--4---------------|
--5------------------|--7------------------|--5------------------|
---------------------|---------------------|---------------------|
---------------------|---------------------|---------------------|


  E  E  E  E  E  E  E  E     E  E  E  E  E  E  E  E     E  E  H        Q     
--------------------------|--------------------------|----------------------|
--3-----3-----3-----3-----|--3-----3-----2--L--2-----|--2-----2-------------|
-----2-----2-----2-----2--|-----2-----2-----2-----2--|-----2-----------2----|
--4-----------------------|--------------4-----------|----------------------|
--------------------------|--------------------------|----------------------|
--------------------------|--------------------------|----------------------|


  E  E  E  E  E  E  E  E     E  E  E  E  E  E  E  E   
--------------------1-----|--1-----------------------|
--------3-----------------|--------------------1-----|
--2-----------------------|--------2-----------------|
--------------------------|--------------------------|
-----0-----0-----0-----0--|-----3-----3-----3-----3--|
--0-----------0-----------|--3-----------3-----------|


  E  E  E  E  E  E  E  E     E  E  E  E  E  E  Q       E  E  E  E  E  E  E  E   
--------------------------|-------------------------|--------------------5-----|
--1-----------------1-----|-----3-------------------|--------3-----------------|
--------0-----------------|--5-----4-----------0----|--2-----------------------|
-----2-----2-----2-----2--|-----------0-----0-------|--------------------------|
--3-----------3-----------|-------------------------|-----0-----0-----0-----0--|
--------------------------|--5-----------5----------|--0-----------0-----------|


  E  E  E  E  E  E  E  E     E  E  E  E  E  E  Q       E  E  E  E  E  E  E  E   
--5-----------------5-----|--3-----------------3----|--------------------------|
--------6-----------------|--------1----------------|--3-----------------3-----|
--------------------------|-------------------------|--------0-----2-----------|
--------------------------|-----2-----2-----2-------|-----0-----0-----0-----0--|
-----3-----3-----3-----3--|--3-----------3----------|--------------------------|
--3-----------3-----------|-------------------------|--5-----------------------|


  ^                          ^                        
  E  E  E  E  E  E  E  E     E  E  E  E  E  E  E  E   
--1-----0-----------------|--------------------------|
--3-----------3-----1-----|--0-----------------0-----|
--2-----------------------|--0-----0-----0-----------|
--0-----------------------|--0--0-----0-----0-----0--|
--0--0-----0-----0-----0--|--------------------------|
--0-----------------------|--5-----------------------|


  E  E  E  E  E  E  E  E     E  E  E  E  E  E  E  E   
--------------------------|--------------------------|
--0--1--------------------|--0-----------------3-----|
--------2-----------2-----|--0-----0-----2-----------|
--------------------------|-----0-----0-----0-----0--|
-----------3-----3-----3--|--------------------------|
--3-----------3-----------|--5-----------------------|


  ^                          ^                        
  E  E  E  E  E  E  E  E     E  E  E  E  E  E  E  E   
--1-----0-----------------|--------------------------|
--3-----------3-----1-----|--0-----------------0-----|
--2-----------------------|--0-----0-----0-----------|
--0-----------------------|--0--0-----0-----0-----0--|
--0--0-----0-----0-----0--|--------------------------|
--0-----------------------|--5-----------------------|


                             ^                     
  E  E  E  E  E  E  E  E     E  E  E  E  H         
--------------------------|-----------------------|
--0--1--------------------|-----------------------|
--------2-----------2-----|--2--------------------|
--------------------------|--0-----0--L--L--------|
-----------3-----3-----3--|-----0-----------------|
--3-----------3-----------|--0--------------------|


    Q      Q      Q      Q         Q      Q      Q      Q     
------------------------------|------------------------------|
----------------<>1-----------|----------------<>1-----------|
---------<>2-----------<>2----|---------<>2-----------<>2----|
--<>3-------------------------|--<>3-------------------------|
------------------------------|------------------------------|
----0-------------------------|------------------------------|


    Q      Q      Q      Q         Q      Q      Q    Q     
------------------------------|----------------------------|
----------------<>1-----------|----------------<>1---------|
---------<>2-----------<>2----|---------<>2-----------2----|
--<>3-------------------------|--<>3-----------------------|
------------------------------|----------------------------|
----0-------------------------|----------------------------|


  E  E  E  E  E  E  E  E     E  E  E  E  E  E  E  E   
--------------------1-----|--1-----------------------|
--------3-----------------|--------------------1-----|
--2-----------------------|--------2-----------------|
--------------------------|--------------------------|
-----0-----0-----0-----0--|-----0-----0-----0-----0--|
--0-----------0-----------|--0-----------0-----------|


  E  E  E  E  E  E  E  E     E  E  E  E  E  E  Q       E  E  E  E  E  E  E  E   
--------------------------|-------------------------|--------------------5-----|
--1-----------------1-----|--1--3--0----------------|--------3-----------------|
--------0-----------------|--------0-----0-----0----|--2-----------------------|
--------------------------|-----------0-----0-------|--------------------------|
-----0-----0-----0-----0--|-------------------------|-----0-----0-----0-----0--|
--0-----------0-----------|--0----------------------|--0-----------0-----------|


  E  E  E  E  E  E  E  E     E  E  E  E  E  E  E  E   
--5-----------------5-----|--3-----------------3-----|
--------6-----------------|--------1-----------------|
--------------------------|--------------------------|
--------------------------|-----2-----2-----2-----2--|
-----0-----0-----0-----0--|--3-----------3-----------|
--0-----------0-----------|--------------------------|


  E  E  E  E  E  E  E  E     E  E  E  E  E  E  E  E   
--3-----------------------|--1-----------------------|
--------0-----------3-----|-----------------------3--|
--------------0-----------|--------3-----------3-----|
-----0-----0-----0-----0--|-----3-----3-----3--------|
--------------------------|--1-----------1-----------|
--5-----------------------|--------------------------|


  E  E  E  E  E  E  E  E     E  E  E  E  E  E  E  E   
--1-----------------------|--1-----1-----------5-----|
--------3-----------3-----|--------------------------|
-----2--------------------|-----3--------3-----------|
--------------0-----------|-----------3-----3-----3--|
-----------0-----0-----0--|--1-----------------------|
--0-----------------------|--------------------------|


  E  E  E  E  E  E  E  E     E  E  E  E  E  E  E  E   
--5-----------------5-----|--3--------------1--0-----|
--------3-----------------|-----------------------3--|
-----2--------------------|--------0-----0-----------|
--------------0-----------|-----2-----2--------------|
-----------0-----0-----0--|--3-----------------------|
--0-----------------------|--------------------------|


  E  E  E  E  E  E  E  E     E  E  E  E  E  E  E  E     E  E  E  E  Q     Q     
--------------------------|--0-----------------------|--0----------------------|
--6-----------------6-----|-----------------3--1--3--|-------------------10----|
--------0-----0-----------|--------0-----0-----------|--------2-----2----------|
-----0-----0-----0-----0--|-----2-----2--------------|-----2-----2-------------|
--------------------------|--3-----------------------|--0----------------------|
--5-----------------------|--------------------------|-------------------------|


   S S  S  S  S S  S  S  S S  S  S S S  S  S    S S S S S S S S Q    E  E   
--13---------12---------10---------8---------|--7-------7-------7-------7--|
----------10---------10---------10--------10-|--------8-------8------8-----|
-------10---------10---------10--------10----|------7-------7--------------|
-----0----------0----------0---------0-------|----5-------5----------------|
---------------------------------------------|-----------------------------|
---------------------------------------------|-----------------------------|


   S S S  S  S S  S  S  Q     E   E     S S S S S S S S Q     E   E   
-------8-----------------------------|----------7-------7--------10--|
--12--------10---------10--------10--|--8-----8-------8------10------|
---------10---------10-------10------|------7-------7----------------|
-----------------10------------------|----5-------5------------------|
-----8---------8---------------------|-------------------------------|
-------------------------------------|-------------------------------|


  E  S S S S S S H           E  E  E  E  E  E  E  E   
-----------7--------------|--------------------0-----|
--8------8---8------------|--------------6-----------|
-------7-------7----------|--7-----------------------|
-----5-----------5--------|--------0-----------------|
--------------------------|-----0-----0-----0-----0--|
--------------------------|--0-----------------------|


  E  E  E  E  E  E  E  E     E  E  E  E  E  E  E  E   
--------------------------|--------------------0-----|
--------3-----------------|--------------6-----------|
--5--4--------------------|--7-----------------------|
--------------0-----0-----|--------0-----------------|
-----------0-----0-----0--|-----0-----0-----0-----0--|
--0-----------------------|--0-----------------------|


  E  E  E  E  E  E  E  E     E  E  E  E  E  E  E  E     E  E  E  E  E  E  Q     
--------------------------|--------------------0-----|-------------------------|
-----0--------------------|--------------6-----------|--------3-----------3----|
--5-----------------------|--7-----------------------|--5--4-------------------|
-----------0-----0-----0--|--------0-----------------|--------------0----------|
--------0-----0-----0-----|-----0-----0-----0-----0--|-----------0-----0-------|
--0-----------------------|--0-----------------------|--0----------------------|


                    ^                                                        
  E  E  E  E  E  E  E  E     E  E  E  E  E  E  E  E     E  E  H        Q     
--------------------------|--------------0-----0-----|--0-----0-------------|
--3-----3-----3-----3-----|--3-----3-----------------|----------------------|
-----2-----2-----2--2--2--|-----2-----2-----2-----2--|-----2-----------2----|
--4-----------------4-----|--------------------------|----------------------|
--------------------------|--------------0-----------|----------------------|
--------------------------|--------------------------|----------------------|


  E  E  E  E  E  E  E  E     E  E  E  E  E  E  E  E   
--------------------1-----|--1-----------------------|
--------3-----------------|--------------------1-----|
--2-----------------------|--------2-----------------|
--------------------------|--------------------------|
-----0-----0-----0-----0--|-----3-----3-----3-----3--|
--0-----------0-----------|--3-----------3-----------|


  E  E  E  E  E  E  E  E     E  E  E  E  E  E  Q       E  E  E  E  E  E  E  E   
--------------------------|-------------------------|--------------------5-----|
--1-----------------1-----|-----3-------------------|--------3-----------------|
--------0-----------------|--5-----4-----------0----|--2-----------------------|
-----2-----2-----2-----2--|-----------0-----0-------|--------------------------|
--3-----------3-----------|-------------------------|-----0-----0-----0-----0--|
--------------------------|--5-----------5----------|--0-----------0-----------|


  E  E  E  E  E  E  E  E     E  E  E  E  E  E  Q       E  E  E  E  E  E  E  E   
--5-----------------5-----|--3-----------------3----|--------------------------|
--------6-----------------|--------1----------------|--3-----------------3-----|
--------------------------|-------------------------|--------0-----2-----------|
--------------------------|-----2-----2-----2-------|-----0-----0-----0-----0--|
-----3-----3-----3-----3--|--3-----------3----------|--------------------------|
--3-----------3-----------|-------------------------|--5-----------------------|


  ^                          ^                        
  E  E  E  E  E  E  E  E     E  E  E  E  E  E  E  E   
--1-----0-----------------|--------------------------|
--3-----------3-----1-----|--0-----------------0-----|
--2-----------------------|--0-----0-----0-----------|
--0-----------------------|--0--0-----0-----0-----0--|
--0--0-----0-----0-----0--|--------------------------|
--0-----------------------|--5-----------------------|


  E  E  E  E  E  E  E  E     E  E  E  E  E  E  E  E   
--------------------------|--------------------------|
--0--1--------------------|--0-----------------3-----|
--------2-----------2-----|--0-----0-----2-----------|
--------------------------|-----0-----0-----0-----0--|
-----------3-----3-----3--|--------------------------|
--3-----------3-----------|--5-----------------------|


  ^                          ^                                                  
  E  E  E  E  E  E  E  E     E  E  E  E  E  E  E  E     E  E  E  E  E  E  Q     
--1-----0-----------------|--------------------------|--------------------0----|
--3-----------3-----1-----|--0-----------------0-----|--0--1-------------------|
--2-----------------------|--0-----0-----0-----------|--------2-----------2----|
--0-----------------------|--0--0-----0-----0-----0--|-------------------------|
--0--0-----0-----0-----0--|--------------------------|-----------3-----3-------|
--0-----------------------|--5-----------------------|--3-----------3----------|


  ^                  
  W                  
-------------------||
--3----------------||
--2----------------||
--0----------------||
-------------------||
--0----------------||

Добавлено: 27.03.2015
Другие материалы по этой песне:
  • Аккорды и текст

Страница создана 27.03.2015
http://primanota.ru/jeremy-soule/skyrim-from-past-to-present-chords.htm
Привет, Гость.
Предлагаем пройти революционный курс по гитаре.
Подарок от PrimaNota.Ru, забирай!