PrimaNota.ru - самый крупный в мире бесплатный архив песенных текстов, аккордов, табулатур и нот


Jeremy Soule - A Winters Tale - таба, видео

Регистрация Запомнить меня
Войти через:  Facebook Google Twitter Vk Yandex Mail.ru

Jeremy Soule - A Winters Tale - таба, видео

Печатать
Просмотров: 681
-------------------------------------------------------------------------------
                             A WINTER'S TALE - Jeremy Soule
-------------------------------------------------------------------------------

Tabbed by: mckhew
E-mail: mckhewy@gmail.com

Tuning: Standard
  
   Key starts in Em
e|-x----------------------------x--------------------------------------------|
B|-x----------------------------x-----------3--------------------------------|
G|-x----------------------------x--0-2-4--2---4--2-0-2--0---------0-2--/5-4-2|
D|-2----------5-4-2-------------2-4-----------------------4-0--2h4-----------|
A|-2--------------2-------------2--------------------------------------------|
E|-0-00-00-00-----0-00-00-00-0--0--------------------------------------------|

e|------------------------------------------------------------------------x--|
B|-----------------3------------------------------------------------------x--|
G|--------0-2-4--2---4--2-0-2--0----------0-2---0-2--0--------------------0--|
D|-1--2-4------------------------4-0--2h4-----4--------4-0-0--*let ring*--0--|
A|----2-------------------------------------------------------------------x--|
E|----0-------------------------------------------------------------------x--|

e|-------------3----------------------------------x--------------3-----------|
B|---3----5--5---3--1-0----0-1-3-1-0---------0----x---3---3-5--5---3-1-0--0--|
G|-4----4---------------2-----------2-0-2--0---2--0-4---4---------------2----|
D|------------------------------------------------0--------------------------|
A|------------------------------------------------x--------------------------|
E|------------------------------------------------x--------------------------|

e|-------------------------------0-------------------------------------------|
B|-1-3-1-0-------------1--0-0-----3-1-3-1-0---0-1-3-1-0--------0------1--0-0-|
G|---------2-0-2-0-2-------2-2-0-----------2-----------2-0-2-0---2--------2--|
D|--------------------0----------------------------------------------0-------|
A|---------------------------------------------------------------------------|
E|---------------------------------------------------------------------------|

e|-----0---------------------------------------------------------------------|
B|------3-1-3-1-0---0-1-3-1-0------------------------------------------------|
G|-2-0-----------2-----------2-0-2-0----------------0------0-2-0---0-2-4-5-4-|
D|-----------------------------------1--*let ring*---1--1-4-----4------------|
A|---------------------------------------------------------------------------|
E|---------------------------------------------------------------------------|

e|--------2-3-5-/8-7---x-----------------------------------------------------|
B|---0-1-3-------------x----------3------------------------------------------|
G|-2-------------------x--0-2-4-2---4--2-0-2--0----------0-2--2h4-/5-4-2-----|
D|---------------------2-4----------------------4-0--2h4----------------1----|
A|---------------------2-----------------------------------------------------|
E|---------------------0-----------------------------------------------------|

e|-x-------------------------------------------------------x--------------3--|
B|-x------------3------------------------------------------x---3---3-5--5---3|
G|-x---0-2-4--2---4--2-0-2--0----------0-2---0-2--0--------0-4---4-----------|
D|-2-4------------------------4-0--2h4-----4--------4-2----0-----------------|
A|-2-------------------------------------------------------x-----------------|
E|-0-------------------------------------------------------x-----------------|


e|------------------------------x----------------3---------------------------|
B|-1-0--0-1-3-1-0---------0-----x------3--3-5--5---3--1-0---0-1-3-1-0--------|
G|----2-----------2-0-2-0---2---0-2-4-5-------------------2-----------2-0-2-0|
D|------------------------------0--------------------------------------------|
A|------------------------------x--------------------------------------------|
E|------------------------------x--------------------------------------------|

e|-----------------0-----------------------------------------------0---------|
B|-----1-0---0-------3-1-3-1-0---0-1-3-1-0-------------1-0---0-------3-1-3-1-|
G|-2-------2---2-0-------------2-----------2-0-2-0-2-------2---2-0-----------|
D|----0-----------------------------------------------0----------------------|
A|---------------------------------------------------------------------------|
E|---------------------------------------------------------------------------|
                                                                        
e|---------------------------------------------------------------------------|
B|-0---0-1-3-1-0--------------------------------------------------3-/5-55-4--|
G|---2-----------2-0-2-0--------0-2-0----------2-4-5-4-2-0-2--4-5------------|
D|-----------------------1--1-4-------4-2-4--4-------------------------------|
A|---------------------------------------------------------------------------|
E|---------------------------------------------------------------------------|

Key change to E major
e|-x------------------------------------------------------x------------------|
B|-x------------2--2-5------------------------------------x--------------2-2-|
G|-1---1-2-4--4--------4-2-1--------1-2-4--1h2-/4-2-1-----1---1-2-4--1-4-----|
D|-2-4------------------------4-2--4-------------------4--2-4----------------|
A|-2------------------------------------------------------2------------------|
E|-0------------------------------------------------------0------------------|

e|---------------------------------------------------------------------------|
B|-5---------------------------------2-2-----2-22----2-2---------------2-2---|
G|---4--2-1--------1-2-4----2-1----------4--------4------4-1h2-/4-2-1-----4--|
D|----------4-2--4--------------4-2--------2-------------------------4------2|
A|---------------------------------------------------------------------------|
E|---------------------------------------------------------------------------|

e|----------------------------x----------------------------------------------|
B|-2-22---2-25----------------x------------2--2-5----------------------------|
G|-----4------4-1h2-/4-2-1----1---1-2-4--4--------4-2-1-------1-2-4--1h2-/4-2|
D|------------------------4---2-4-----------------------4-2--4---------------|
A|----------------------------2----------------------------------------------|
E|----------------------------0----------------------------------------------|

e|-----x---------------------------------------------------------------------|
B|-----x-----------2--2-5----------------------------------------------------|
G|-1---1---1-2-4-4--------4-2-1--------1-2-4-1-------------------------------|
D|--4--2-4----------------------4-2--4---------2-/4-2-1-2~-------------------|
A|-----2---------------------------------------------------------------------|
E|-----0---------------------------------------------------------------------|




************************************

| /   slide up
| \   slide down
| h   hammer-on
| p   pull-off
| ~   vibrato
| +   harmonic
| x   Mute note
| b   Bend
| pb  Pre-bend
| br  Bend release
| pbr Pre-bend release
| brb Bend release bend

************************************
Добавлено: 14.10.2013
Другие материалы по этой песне:
  • Аккорды и текст

Страница создана 01.09.2013
http://primanota.ru/jeremy-soule/a-winters-tale-chords.htm
Привет, Гость.
Предлагаем пройти революционный курс по гитаре.
Подарок от PrimaNota.Ru, забирай!