PrimaNota.ru - самый крупный в мире бесплатный архив песенных текстов, аккордов, табулатур и нот


Jeremy Soule - Far Horizons - таба, видео

Регистрация Запомнить меня
Войти через:  Facebook Google Twitter Vk Yandex Mail.ru

Jeremy Soule - Far Horizons - таба, видео

Печатать
Просмотров: 359
                                 Far Horizons         
                                    Skyrim                          
                                 Jeremy Soule

Arranged by Harry Murrell

Capo on 3rd fret



     E  E  E  E  H           H        Q    Q       E  E  E  E  H         
E||--0--7--5-----3--------|---------------------|--0--3--2--------------|
B||-----------5-----------|----------------5----|-----------3--0--------|
G||-----------------------|---------------------|-----------------------|
D||-----------------------|-----------5---------|--0--------------------|
A||-----------------------|--3------------------|-----------------------|
E||--0--------------------|---------------------|-----------------------|


                        ^                                           
  H        Q    Q       E  E  E  E  H           H        Q    Q     
---------------------|--0--7--5-----3--------|----------------0----|
----------------3----|-----------5-----------|----------------3----|
----------------4----|--0--------------------|-----------2---------|
-----------4---------|-----------------------|--0------------------|
--2------------------|--3--------------------|---------------------|
---------------------|-----------------------|---------------------|


                                                     ^                        
  E  E  E  E  H           E  E  E  E  E  E  E  E     E  E  E  E  E  E  E  E   
--0--3--2--------------|--------------------------|--0--3--2-----0-----------|
-----------3--0--------|--------0-----0-----3-----|-----------3--------------|
-----------------------|--------------------------|--0-----------------0-----|
-----------------------|-----4-----4-----4-----4--|-----------------2-----2--|
--0--------------------|--2-----------------------|--3-----------------------|
-----------------------|--------------------------|--------------------------|


  E  E  E  E  E  E  E  E     E  E  E  E  E  E  E  E   
--------------2-----3-----|--0--3--2-----2-----------|
--------------------------|-----------3--------0-----|
--------2-----------------|-----------------0-----0--|
-----2-----2-----2-----2--|--------------------------|
--0-----------------------|--------------------------|
--------------------------|--0-----------------------|


                             ^                        
  E  E  E  E  E  E  E  E     E  E  E  E  E  E  E  E   
--------------3-----2-----|--0--3--2-----0-----------|
--------------------------|--1--------3--------1-----|
--------4-----------------|--0--------------0-----0--|
-----4-----4-----4-----4--|--------------------------|
--2-----------------------|--3-----------------------|
--------------------------|--------------------------|


  ^                                                                             
  E  E  E  E  E  E  E  E     Q    E  E  E  E  E  E     E  E  E  E  E  E  E  E   
--0-----------------------|-------------------------|--------------------------|
--1-----3-----------------|-------------------------|--------3-----------3-----|
--2-----------------2-----|--4-------------4--------|-----4-----4-----4--------|
-----2-----2-----2-----2--|-------------4-----4-----|--4-----------4--------4--|
--0-----------0-----------|--2-------2-----------2--|--------------------------|
--------------------------|-------2-----------------|--------------------------|


  ^                                                   
  E  E  E  E  E  E  E  E     E  E  E  E  E  E  E  E   
--0--7--5-----3-----------|--------------------0-----|
--0--------5--------------|--------------------------|
--0-----------------0-----|--------0-----------------|
-----------------4-----2--|-----2-----2-----2-----2--|
--------------------------|--3-----------3-----------|
--0-----------0-----------|--------------------------|


  ^                                                   
  E  E  E  E  E  E  E  E     E  E  E  E  E  E  E  E   
--0--3--2-----------------|--------------------------|
--3--------3--0-----------|-----------3--------3-----|
--2-----------------0-----|--------4-----4-----------|
--0--------------4-----4--|-----4-----------4-----4--|
--------------------------|--2-----------------------|
--------------------------|--------------------------|


  ^                                                                            
  E  E  E  E  E  E  E  E     E  E  E  E  E  E  Q       E  E  E  E  E  E  Q     
--0--7--5-----3-----------|--------------------0----|--0--3--2----------------|
-----------5--------------|--------3----------------|-----------3--------0----|
--0-----------------5-----|-----2-----2-----2-------|--------------4----------|
-----------------5-----5--|--0-----------0----------|-----------------4-------|
--3-----------3-----------|-------------------------|--2----------------------|
--------------------------|-------------------------|-------------------------|


  E  E  E  E  H           E  E  E  E  E  E  E  E     E  E  E  E  E  E  E  E   
--7--------------------|--0-----------2--------3--|--2-----------------------|
--------7-----7--------|--------0-----------0-----|--------3-----3-----3-----|
-----7-----7-----------|-----0-----0-----0--------|-----2-----2-----2-----2--|
-----------------------|--------------------------|--0-----------------------|
-----------------------|--------------------------|--------------------------|
--7--------------------|--0-----------------------|--------------------------|


  E  E  E  E  E  E  E  S  S    Q    E  E  E  E  E  E   
--------0-----2--------3p-2-|--0----------------------|
--3-------------------------|-------------0-----------|
--------------------4-------|----------0-----0-----0--|
-----4-----4-----4----------|-------2-----------2-----|
--2-------------------------|-------------------------|
----------------------------|--0----------------------|


                                                       ^                        
  E  E  E  E  E  E  E  E     E  E  E  E  E  E  Q       E  E  E  E  E  E  E  E   
--0-----------2--------3--|--2-----------------7----|--7-----------------------|
--------0-----------0-----|--------3-----3----------|--0-----------------------|
-----0-----0-----0--------|-----2-----2-----2-------|--0-----0-----0-----0-----|
--------------------------|--0----------------------|-----0-----0-----0-----0--|
--------------------------|-------------------------|--------------------------|
--0-----------------------|-------------------------|--3-----------------------|


  E  E  E  E  E  E  Q       H        Q.     S  S    H        H         
-------------------------|-----------------------|--------------------|
-------------------------|--3---------------5p-3-|--2--------0--------|
--------0-----0-----0----|-----------------------|--------------------|
-----0-----0-----0-------|-----------------------|--------------------|
-------------------------|--2--------------------|--0-----------------|
--3----------------------|-----------3-----------|-----------3--------|


  H        Q.     E     Q    Q    Q       E  E  Q    Q       E  E  E  E  E  E   
---------------------|-----------------|------------------|--------------------|
--3------------------|--2----5----2----|--3--2--0---------|--3-----------------|
------------------2--|-----------------|------------------|--------0-----0-----|
---------------------|-----------------|-------------4----|-----0-----0-----0--|
-----------0---------|-----------------|--2---------------|--------------------|
--3------------------|--2--------------|------------------|--3-----------------|


  E  E  E  E  E  E     E  E  E  E  E  E     E  E  E  E  E  E   
--------------------|--------------------|--------------------|
--3-----2-----------|--2-----------------|--0-----------------|
--------------2-----|--------2-----2-----|--------0-----0-----|
-----2-----2-----2--|-----4-----4-----4--|-----0-----0-----0--|
--0-----------------|--------------------|--------------------|
--------------------|--2-----------------|--3-----------------|


  E  E  E  E  E  E     E  E  E  E  E  E     E  E  E  E  E  E   
--------------------|--0-----------------|--------------------|
--3-----------------|-----------2--------|--5-----------------|
--------0-----0-----|--------2-----2-----|--------2-----2-----|
-----0-----0-----0--|-----2-----------2--|-----4-----4-----4--|
--------------------|--0-----------------|--------------------|
--3-----------------|--------------------|--2-----------------|


  E  E  E  E  E  E       E  E  E  E  E  E     E  E  E  E  E  E   
--2-----------------||---------------------|--------------------|
-----------3--------||---3-----3-----3-----|--3-----2-----------|
--------4-----4-----||*--0-----0-----0-----|--2-----2-----2-----|
-----4-----------4--||*-----0-----0-----0--|-----2-----2-----2--|
--2-----------------||---------------------|--0-----------------|
--------------------||---3-----------------|--------------------|


  E  E  E  E  E  E     E  E  E  E  E  E       Q    E  E  E  E   
--------------------|---------------------||-------------------|
--2-----------------|--0------------------||--3----------------|
--2-----2-----2-----|--0-----0-----0-----*||--4-------------4--|
-----4-----4-----4--|-----0-----0-----0--*||-------------4-----|
--------------------|---------------------||--2-------2--------|
--2-----------------|--3------------------||-------2-----------|


  E  E  E  E  E  E     E  E  E  E  E  E     E  E  E  E  E  E   
--------------------|--------------------|--------------------|
--3-----------3-----|--3-----2-----------|--2-----------------|
--------0-----------|--------------2-----|--------2-----2-----|
-----0-----0-----0--|-----2-----2-----2--|-----4-----4-----4--|
--------------------|--0-----------------|--------------------|
--3-----------------|--------------------|--2-----------------|


  E  E  E  E  E  E     E  E  E  E  E  E     E  E  E  E  E  E   
--------------------|--------------------|--------------------|
--0-----------------|--3-----3-----3-----|--3-----2-----------|
--------0-----0-----|--------------------|--------------2-----|
-----0-----0-----0--|-----0-----0-----0--|-----2-----2-----2--|
--------------------|--------------------|--0-----------------|
--3-----------------|--3-----------------|--------------------|


                       ^               ^                        
  E  E  E  E  E  E     H.              E  E  E  E  E  E  E  E   
--------------------|---------------|--0--7--5-----3-----------|
--2-----------------|---------------|--0--------5--------0-----|
--------2-----2-----|--4------------|--0--------------0-----0--|
-----4-----4-----4--|--4------------|--------------------------|
--------------------|--2------------|--------------------------|
--2-----------------|---------------|--0-----------------------|


  E  E  E  E  E  E  E  E     E  E  E  E  E  E  E  E   
--------------------0-----|--0--3--2-----------------|
--------------------------|-----------3--0-----------|
--------0-----0-----------|--------------------------|
-----2-----2-----2-----2--|--0--------------0-----0--|
--3-----------------------|--------------------0-----|
--------------------------|--------------------------|


                             ^                                                  
  E  E  E  E  E  E  E  E     E  E  E  E  E  E  E  E     E  E  E  E  E  E  Q     
--------------------------|--0--7--5-----3-----------|--------------------0----|
--------------------3-----|-----------5--------------|--------3----------------|
--------4-----------------|--0-----------------5-----|-----2-----2-----2-------|
-----4-----4-----4-----4--|-----------------5-----5--|--0-----------0----------|
--2-----------2-----------|--3-----------------------|-------------------------|
--------------------------|--------------------------|-------------------------|


  E  E  E  E  E  E  E  E     E  E  E  E  E  E  E  E   
--0--3--2-----------------|--------------------------|
-----------3--0-----------|-----------3--------3-----|
--------------------4-----|--------4-----4-----------|
-----------------4-----4--|-----4-----------4-----4--|
--0-----------------------|--2-----------------------|
--------------------------|--------------------------|


  ^                                                   
  E  E  E  E  E  E  E  E     E  E  E  E  E  E  E  E   
--0--3--2-----0-----------|--------------2-----3-----|
-----------3--------------|--------------------------|
--0-----------------0-----|--------2-----------------|
-----------------2-----2--|-----2-----2-----2-----2--|
--3-----------------------|--0-----------------------|
--------------------------|--------------------------|


  E  E  E  E  E  E  E  E     E  E  E  E  E  E  E  E   
--0--3--2-----2-----------|--------------3-----2-----|
-----------3--------0-----|--------------------------|
-----------------0-----0--|--------4-----------------|
--------------------------|-----4-----4-----4-----4--|
--------------------------|--2-----------------------|
--0-----------------------|--------------------------|


  ^                          ^                          
  E  E  E  E  E  E  E  E     E  E  E  E   E   E  E  E   
--0--3--2-----0-----------|--0-------------------------|
--1--------3--------1-----|--1-----3-------------------|
--0--------------0-----0--|--2-----------(2)-----2-----|
--------------------------|-----2-----2-------2-----2--|
--3-----------------------|--0-------------------------|
--------------------------|----------------------------|


                                                       ^                        
  Q    E  E  E  E  E  E     E  E  E  E  E  E  E  E     E  E  E  E  E  E  E  E   
----------------0--------|--------------------------|--0--7--5-----3-----------|
-------------------0-----|--4-----------------------|--0--------5--------------|
--4----------------------|-----------4--------4-----|--0-----------------0-----|
-------------4--------4--|--------4-----4-----------|-----------------4-----2--|
--2-------2--------------|-----2-----------2-----2--|--------------------------|
-------2-----------------|--------------------------|--0-----------0-----------|


                             ^                        
  E  E  E  E  E  E  E  E     E  E  E  E  E  E  E  E   
--------------------0-----|--0--3--2-----------------|
--------------------------|--3--------3--0-----------|
--------0-----------------|--2-----------------0-----|
-----2-----2-----2-----2--|--0--------------4-----4--|
--3-----------3-----------|--------------------------|
--------------------------|--------------------------|


                             ^                                                  
  E  E  E  E  E  E  E  E     E  E  E  E  E  E  E  E     E  E  E  E  E  E  Q     
--------------------------|--0--7--5-----3-----------|--------------------0----|
-----------3--------3-----|-----------5--------------|--------3----------------|
--------4-----4-----------|--0-----------------5-----|-----2-----2-----2-------|
-----4-----------4-----4--|-----------------5-----5--|--0-----------0----------|
--2-----------------------|--3-----------3-----------|-------------------------|
--------------------------|--------------------------|-------------------------|


                                                    ^                        
  E  E  E  E  E  E  Q       E  E  E  E  H           E  E  E  E  E  E  E  E   
--0--3--2----------------|--7--------------------|--0-----------2--------3--|
-----------3--------0----|--------7-----7--------|--0-----0-----------0-----|
--------------4----------|-----7-----7-----------|--0--0-----0-----0--------|
-----------------4-------|-----------------------|--------------------------|
--2----------------------|-----------------------|--------------------------|
-------------------------|--7--------------------|--0-----------------------|


  E  E  E  E  E  E  E  E     E  E  E  E  E  E  E  E     Q    E  E  E  E  E  E   
--2-----------------------|--------0-----2--------0--|--0----------------------|
--------3-----3-----3-----|--3-----------------------|-------------0-----------|
-----2-----2-----2-----2--|--------------------4-----|----------0-----0-----0--|
--0-----------------------|-----4-----4-----4--------|-------2-----------2-----|
--------------------------|--2-----------------------|-------------------------|
--------------------------|--------------------------|--0----------------------|


                                                       ^                        
  E  E  E  E  E  E  E  E     E  E  E  E  E  E  Q       E  E  E  E  E  E  E  E   
--0-----------2--------3--|--2-----------------5----|--7-----------------------|
--------0-----------0-----|--------3-----3----------|--0-----------------------|
-----0-----0-----0--------|-----2-----2-----2-------|--0-----0-----0-----0-----|
--------------------------|--0----------------------|-----0-----0-----0-----0--|
--------------------------|-------------------------|--------------------------|
--0-----------------------|-------------------------|--3-----------------------|


                                                ^                  
  E  E  E  E  E  E  Q       W                   W                  
-------------------------|-------------------|--0----------------||
-------------------------|-------------------|--0----------------||
--------0-----0-----0----|-------------------|--0----------------||
-----0-----0-----0-------|--4----------------|-------------------||
-------------------------|--2----------------|-------------------||
--3----------------------|-------------------|--0----------------||
Добавлено: 15.11.2015
Вам также может быть интересно:
Другие материалы по этой песне:
  • Аккорды и текст

Страница создана 15.11.2015
http://primanota.ru/jeremy-soule/far-horizons-chords.htm
Привет, Гость.
Предлагаем пройти революционный курс по гитаре.
Подарок от PrimaNota.Ru, забирай!