PrimaNota.ru - самый крупный в мире бесплатный архив песенных текстов, аккордов, табулатур и нот


Jeff Healey - Hoochie Cookie Man - бас-таба, видео

Регистрация Запомнить меня
Войти через:  Facebook Google Twitter Vk Yandex Mail.ru

Jeff Healey - Hoochie Cookie Man - бас-таба, видео

Печатать
Просмотров: 79
Jeff Healey Band
Hoochie Cookie Man
 

Bass Tabs
 
Bassist: Joe Rockman
 
Tuning : EADG
Tempo : ... bpm
Key: A
 
Intro:
G|------------------| 
D|----  Guitar  ----|  
A|------------------| x2
E|------------------| 
 
Verse1: (Bass starts: 00:07)     
G|------------------|-  
D|------------------|- 
A|------------------|-  x10
E|-03r-x4/5r--------|-  
Gypsy woman told my mother
'Fore I was born
She said, you got a boy-child coming
And gonna be a son of a gun
Gonna make pretty womens
Jump and shout
 
00:38
G|------------------||-----------------|-
D|------------------||-----------------|-
A|------------------||----4-45-56-67---|-
E|-03r-x4/5r--------||-5-5-------------|-
And the world wanna know
                           What this all about
 
G|------7/5g--------||------7/5g--------|-
D|------------4-5-7-||------------4-5-7-|-
A|-4/5--------------||-4/5--------------|-
E|------------------||------------------|-
But you know I'm here
Everybody knows I'm here
 
G|--------------------------------------|-
D|----------------4--4-7--7-5--5-4--4---|-
A|------4--4-7--7---------------------7-|-
E|-5--5---------------------------------|-
 
G|------------6-9-6-||------------4-7-4-|-
D|-----6--69--------||-----4--47--------|-
A|-6-7--------------||-4-5--------------|-
E|------------------||------------------|-
Well, I'm your hoochie coochie man
And everybody knows I'm here
 
G|------------------||------------------|-
D|------------------||---4-7------------|-
A|------4-45-56-67--||-------7g--7-5-7--|-
E|-45--5------------||-----------------5|-
 
Verse2: 01:09
G|------------------|-  
D|------------------|- 
A|------------------|- x7
E|-03r-x4/5r--------|-  
I got the black cat bone
And I got a mojo tooth
I got the John the Conqueror root
Gonna mess with you
I'm gonna make you girls
Lead me by my hand
 
01:31
G|------------------||-----------------|-
D|------------------||-----------------|-
A|------------------||----4-45-56-67---|-
E|-03r-x4/5r--------||-5-5-------------|-
Then the world gonna know
                     I'm your hoochie coochie man
 
G|------7/5g--------||------7/5g--------|-
D|------------4-5-7-||------------4-5-7-|-
A|-4/5--------------||-4/5--------------|-
E|------------------||------------------|-
But you know I'm here
Well well well, everybody knows I'm here
G|--------------------------------------|-
D|----------------4--4-7--7-5--5-4--4---|-
A|------4--4-7--7---------------------7-|-
E|-5--5---------------------------------|-
 
G|------------6-9-6-||------------4-7-4-|-
D|-----6--69--------||-----4--47--------|-
A|-6-7--------------||-4-5--------------|-
E|------------------||------------------|-
Well, I'm your hoochie coochie man
You gonna believe I'm here
 
G|------------------||------------------|-
D|------------------||---4-7------------|-
A|------4-45-56-67--||-------7g--7-5-7--|-
E|-45--5------------||-----------------5|-
 
Instrumental(1): 02:02  (Play X2)
G|------------------||------------4-7-4-|-
D|-----------4-7-4--||---4--4-7--7------|-
A|---4--4-7---------||-5----------------|-
E|-5----------------||------------------|-
 
G|--------------------------------------|-
D|--------------4--4-777--555--444--4---|-
A|----4--4-7--7-----------------------7-|-
E|-5------------------------------------|-
 
G|-----------4-7-4--||------------4-7-4-|-
D|---4--4-7---------||---4--4-7--7------|-
A|45----------------||-5----------------|-
E|------------------||------------------|-
 
G|--------------------------------------|-
D|--------------4--4-777--555--444--4---|-
A|----4--4-7--7-----------------------7-|-
E|-5------------------------------------|-
 
G|------------6-9-6-||------------4-7-4-|-
D|-----6--69--------||-----4--47--------|-
A|-6-7--------------||-4-5--------------|-
E|------------------||------------------|-
 
G|------------------||------------------|-
D|------------------||---4-7------------|-
A|------4-45-56-67--||-------7g--7-5-7--|-
E|-45--5------------||-----------------5|-
 

Verse3: 03:23     
G|------------------|-  
D|------------------|- 
A|------------------|-  x7
E|-03r-x4/5r--------|-  
On the seventh hour
On the seventh day
On the seventh month
Seven doctors say
He say, "He was born for good luck
And that you'll see"
 

03:42
G|------------------||-----------------|-
D|------------------||-----------------|-
A|------------------||----4-45-56-67---|-
E|------------------||-5-5-------------|-
I got seven hundred dollars, baby
                          Don't you mess with me
 
G|------7/5g--------||------7/5g--------|-
D|------------4-5-7-||------------4-5-7-|-
A|-4/5--------------||-4/5--------------|-
E|------------------||------------------|-
But you know I'm here
Well, everybody knows I'm here
 
G|--------------------------------------|-
D|--------------4--4-777--555-4444-4----|-
A|----4--4-7--7----------------------7--|-
E|-5------------------------------------|-
 
G|------------6-9-6-||------------4-7-4-|-
D|-----6--69--------||-----4--47--------|-
A|-6-7--------------||-4-5--------------|-
E|------------------||------------------|-
Well, I'm your hoochie coochie man
And everybody knows I'm here
 
G|--------------------------------------|-
D|--------------------------------------|-
A|----4--4-5--5-6--6-7------------------|-
E|--5-------------------7--5---55555555-|-
 
End: 05:14
 
Tablature Legend ---------------- 
| S  slap
| P  pop
| x  mute note
| /  slide up
| \  slide down
| h  hammer-on
| p  pull-off
| g  grace note
| ~  vibrato
| ^  brush up
Добавлено: 18.11.2015
Другие материалы по этой песне:
  • Аккорды и текст

Страница создана 18.11.2015
http://primanota.ru/jeff-healey/hoochie-cookie-man-chords.htm
Привет, Гость.
Предлагаем пройти революционный курс по гитаре.
Подарок от PrimaNota.Ru, забирай!