PrimaNota.ru - самый крупный в мире бесплатный архив песенных текстов, аккордов, табулатур и нот


Jeff Healey - Its Only Money - бас-таба, видео

Регистрация Запомнить меня
Войти через:  Facebook Google Twitter Vk Yandex Mail.ru

Jeff Healey - Its Only Money - бас-таба, видео

Печатать
Просмотров: 107
Jeff Healey Band
It's only money
(Album : Mess of Blues)

Bass Tabs

Bassist: Joe Rockman


Tuning : EADG
Tempo : 100 bpm 
Key: C
C (F/G)   →  5th : G

Intro: 00:01   Drum / piano
G|---------------------||--------------------|-
D|-+--------+----+---+-||-+---+--+--+--+--+--|- 
A|---------------------||--------------------|-
E|-8--------8----8---8-||-8---8--8--8--8--8--|-

G|----------|----------||--------------------|-
D|--------7-|--------7-||--------7-10-7------|-
A|---7-10---|---7-10---||---7-10--------10-7-|-  
E|-8--------|-8--------||-8------------------|-

G|----------|----------||--------------------|-
D|--------7-|--------7-||\10-8-7-------------|-
A|---7-10---|---7-10---||--------10-8-7------|-  
E|-8--------|-8--------||---------------10-9-|-

Verse1: 00:18
G|----------|----------||--------------------|-
D|--------7-|--------7-||--------7-10-8-7----|-
A|---7-10---|---7-10---||---7-10----------10-|-  
E|-8--------|-8--------||-8------------------|-
I want a buy it...  I've gotta try it,
I've got an edge and I can't deny it,
G|--------7-|--------7-||--------------------|-
D|---7-10---|---7-10---||--------7-10--------|-
A|-8--------|-8--------||---7-10-------7-8-9-|-  
E|----------|----------||-8------------------|-
I want to get it... I need some credit,
Just gimme two millions worth of credit, 

G|--------9-|--------7-||--------------------|-
D|---9-12---|---7-10---||--------------------|-
A|10--------|-8--------||----------10-8-7----|-  
E|----------|----------||-8.--------------10-|-
There's just an awful lot of paper... And it weighs me down,
I'm gonna blow my dough, baby, all over town,

Verse2: 00:33
G|----------|----------||--------------------|-
D|--------7-|--------7-||--------7-10-8-7----|-
A|---7-10---|---7-10---||---7-10----------10-|-  
E|-8--------|-8--------||-8------------------|-
I gonna use it... gonna abuse it,
Gonna get another one when I loose it,

G|--------7-|--------7-||--------------------|-
D|---7-10---|---7-10---||--------7-10--------|-
A|-8--------|-8--------||---7-10-------7-8-9-|-  
E|----------|----------||-8------------------|-
I really crave it... I can't save it,
I need it now and I can't delay it, 

G|--------9-|--------7-||--------------------|-
D|---9-12---|---7-10---||----------10-8-7----|-
A|10--------|-8--------||-----------------10-|-  
E|----------|----------||-8.-----------------|-
It's just an old pile of paper... And it weighs me down,
I'm gonna blow my dough, baby, all over town,


Chorus1: 00:47
G|----------|----------||--------------------|-
D|--------7-|--------7-||--------7-10-7------|-
A|---7-10---|---7-10---||---7-10--------10-7-|-  
E|-8--------|-8--------||-8------------------|-
It's only money...  (spend it ! spend it !)
it's only money...  (spend it ! spend it !)

G|--------7-|--------7-||--------------------|-
D|---7-10---|---7-10---||--------7-10--------|-
A|-8--------|-8--------||---7-10-------7-8-9-|-  
E|----------|----------||-8------------------|-
It's only money... (spend it ! spend it !)
it's only money... (spend it ! spend it !)

G|--------9-|--------7-||--------------------|-
D|---9-12---|---7-10---||--------------------|-
A|10--------|-8--------||----------10-8-7----|-  
E|----------|----------||-8.--------------10-|-
You can't live it up without laying it down
You've got to blow your dough to make the world go round

Instrumental(1): 01:02 
G|----------|----------||--------------------|-
D|--------7-|--------7-||--------7-10-8-7----|-
A|---7-10---|---7-10---||---7-10----------10-|-  
E|-8--------|-8--------||-8------------------|-

G|--------7-|--------7-||--------------------|-
D|---7-10---|---7-10---||--------7-10--------|-
A|-8--------|-8--------||---7-10-------7-8-9-|-  
E|----------|----------||-8------------------|-

G|--------9-|--------7-||--------------------|-
D|---9-12---|---7-10---||--------7-8-7-------|-
A|10--------|-8--------||---7-10-------10-7--|-  
E|----------|----------||-8------------------|-

...

G|----------|----------||--------------------|-
D|--------7-|--------7-||--------7-10-8-7----|-
A|---7-10---|---7-10---||---7-10----------10-|-  
E|-8--------|-8--------||-8------------------|-

G|--------7-|--------7-||--------------------|-
D|---7-10---|---7-10---||--------7-10--------|-
A|-8--------|-8--------||---7-10-------7-8-9-|-  
E|----------|----------||-8------------------|-

G|--------9-|--------7-||--------------------|-
D|---9-12---|---7-10---||\10-8-7-------------|-
A|10--------|-8--------||--------10-8-7------|-  
E|----------|----------||---------------10-9-|-


Verse3: 01:30
G|----------|----------||--------------------|-
D|--------7-|--------7-||--------7-10-8-7----|-
A|---7-10---|---7-10---||---7-10----------10-|-  
E|-8--------|-8--------||-8------------------|-
Yeah, I really want it... I'm getting on it,
Just get the last thing about to spend it, 

G|--------7-|--------7-||--------------------|-
D|---7-10---|---7-10---||--------7-10--------|-
A|-8--------|-8--------||---7-10-------7-8-9-|-  
E|----------|----------||-8------------------|-
I really love it... I really covet,
Whatever you got, I want more of it,

G|--------9-|--------7-||--------------------|-
D|---9-12---|---7-10---||----------10-8-7----|-
A|10--------|-8--------||-----------------10-|-  
E|----------|----------||-8.-----------------|-
It's just an old pile of paper... And it weighs me down,
I'm gonna blow my dough, baby, all over town,

Chorus2: 01:45
G|----------|----------||--------------------|-
D|--------7-|--------7-||--------7-10-8-7----|-
A|---7-10---|---7-10---||---7-10----------10-|-  
E|-8--------|-8--------||-8------------------|-
It's only money...  (spend it ! spend it !)
it's only money...  (spend it ! spend it !)
 
G|--------7-|--------7-||--------------------|-
D|---7-10---|---7-10---||--------7-10--------|-
A|-8--------|-8--------||---7-10-------7-8-9-|-  
E|----------|----------||-8------------------|-
It's only money...  (spend it ! spend it !)
it's only money...  (spend it ! spend it !)

G|--------9-|--------7-||--------------------|-
D|---9-12---|---7-10---||\10-8-7-------------|-
A|10--------|-8--------||--------10-8-7------|-  
E|----------|----------||---------------10-9-|-
You can't live it up without laying ot down
You've got to blow your dough to make the world go round


Instrumental(2): 01:59 
G|----------|----------||--------------------|-
D|--------7-|--------7-||--------7-10-8-7----|-
A|---7-10---|---7-10---||---7-10----------10-|-  
E|-8--------|-8--------||-8------------------|-

G|--------7-|--------7-||--------------------|-
D|---7-10---|---7-10---||--------7-10--------|-
A|-8--------|-8--------||---7-10-------7-8-9-|-  
E|----------|----------||-8------------------|-

G|--------9-|--------7-||--------------------|-
D|---9-12---|---7-10---||--------7-8-7-------|-
A|10--------|-8--------||---7-10-------10-7--|-  
E|----------|----------||-8------------------|-

...

G|----------|----------||--------------------|-
D|--------7-|--------7-||--------7-10-8-7----|-
A|---7-10---|---7-10---||---7-10----------10-|-  
E|-8--------|-8--------||-8------------------|-

G|--------7-|--------7-||--------------------|-
D|---7-10---|---7-10---||--------7-10--------|-
A|-8--------|-8--------||---7-10-------7-8-9-|-  
E|----------|----------||-8------------------|-

G|--------9-|--------7-||--------------------|-
D|---9-12---|---7-10---||\10-8-7-------------|-
A|10--------|-8--------||--------10-8-7------|-  
E|----------|----------||---------------10-9-|-


Chorus3: 02:28 
G|----------|----------||--------------------|-
D|--------7-|--------7-||--------7-10-8-7----|-
A|---7-10---|---7-10---||---7-10----------10-|-  
E|-8--------|-8--------||-8------------------|-
It's only money...  (spend it ! spend it !)
it's only money...  (spend it ! spend it !)
 
G|--------7-|--------7-||--------------------|-
D|---7-10---|---7-10---||--------7-10--------|-
A|-8--------|-8--------||---7-10-------7-8-9-|-  
E|----------|----------||-8------------------|-
It's only money...  (spend it ! spend it !)
it's only money...  (spend it ! spend it !)

G|--------9-|--------7-||--------------------|-
D|---9-12---|---7-10---||\10-8-7-------------|-
A|10--------|-8--------||--------10-8-7------|-  
E|----------|----------||---------------10-9-|-
It's only money... It's only money,
Who cares, It's only money,


Outro: 02:42 
G|----------|----------||--------------------|-
D|--------7-|--------7-||--------7-10-8-7----|-
A|---7-10---|---7-10---||---7-10----------10-|-  
E|-8--------|-8--------||-8------------------|-
It's only money...  (spend it ! spend it !)
We'll just spend it and spend it and spend it,
 
G|--------7-|--------7-||--------------------|-
D|---7-10---|---7-10---||--------7-10--------|-
A|-8--------|-8--------||---7-10-------7-8-9-|-  
E|----------|----------||-8------------------|-
 ...                (spend it ! spend it !)
Who cares, we'll get some more..

G|--------9-|--------7-||-------------------- ------|-
D|---9-12---|---7-10---||\10-8-7------------- ------|-
A|10--------|-8--------||--------10-8-7------ ------|-  
E|----------|----------||---------------10gr- --9~~~|-
It's only money...  (spend it ! spend it !)
I really crave it, I can't save it, dough.. 

End: 03:09


Tablature Legend ----------------  
| S  slap 
| .  full stop
| P  pop 
| x  mute note 
| /  slide up 
| \  slide down 
| h  hammer-on 
| p  pull-off 
| g  grace note 
| ~  vibrato 
| ^  brush up
Добавлено: 18.11.2015
Вам также может быть интересно:
Другие материалы по этой песне:
  • Аккорды и текст

Страница создана 18.11.2015
http://primanota.ru/jeff-healey/its-only-money-chords.htm
Привет, Гость.
Предлагаем пройти революционный курс по гитаре.
Подарок от PrimaNota.Ru, забирай!