PrimaNota.ru - самый крупный в мире бесплатный архив песенных текстов, аккордов, табулатур и нот


Jeff Healey - Im Tore Down - бас-таба, видео

Регистрация Запомнить меня
Войти через:  Facebook Google Twitter Vk Yandex Mail.ru

Jeff Healey - Im Tore Down - бас-таба, видео

Печатать
Просмотров: 139
Уроки эстрадного вокала в Санкт-Петербурге
Jeff Healey Band
I'm tore down

Bass Tabs

Bassist: Joe Rockman


Tuning : EADG
Tempo : 148 bpm 
Key: A+

Intro: 00:01 
G|-------------|-
D|-++++++++++--|-
A|-   DRUMS  --|-
E|-------------|-  

G|------------||------------||----------------------|-
D|---------5--||----------5-||----------5-6-5-------|-
A|-----5-8----||------5-8---||-----5-8---------8-5--|-
E|-5h6--------||-5h6--------||-5h6------------------|-

G|---------5--||---------5--||----------------------|-
D|-----5-8----||-----5-8----||----------5-8-5-------|-
A|-5h6--------||-5h6--------||-----5-8---------8-5--|-
E|------------||------------||-5h6------------------|-

G|----------7-||---------5--||----------------------|-
D|-----7-10---||-----5-8----||----------5-8-5-------|-
A|-7h8--------||-5h6--------||-----5-8---------8-5--|-
E|------------||------------||-5h6------------------|-


Chorus: 00:21
G|------------||------------||----------------------|-
D|---------5--||----------5-||----------5-6-5-------|-
A|-----5-8----||------5-8---||-----5-8---------8-5--|-
E|-5h6--------||-5h6--------||-5h6------------------|-
I'm tore down, I'm almost level with the ground

G|---------5--||---------5--||----------------------|-
D|-----5-8----||-----5-8----||----------5-8-5-------|-
A|-5h6--------||-5h6--------||-----5-8---------8-5--|-
E|------------||------------||-5h6------------------|-
Yes I'm tore down, I'm almost level with the ground

G|----------7-||---------5--||----------------------|-
D|-----7-10---||-----5-8----||----------5-8-5-------|-
A|-7h8--------||-5h6--------||-----5-8---------8-5--|-
E|------------||------------||-5h6------------------|-
Well, I feel like this when my baby can't be found

Verse2: 00:41
G|------------------||------------------|-
D|------------------||------------------|-
A|------------------||--------------5g--|-
E|--6r/-------6r/---||--6r/----6789-----|-
Well I went to the river to jump in
My baby showed up and said, "I will tell you when"

Chorus:>
G|---------5--||---------5--||----------------------|-
D|-----5-8----||-----5-8----||----------5-8-5-------|-
A|-5h6--------||-5h6--------||-----5-8---------8-5--|-
E|------------||------------||-5h6------------------|-
Well, I'm tore down, I'm almost level with the ground

G|----------7-||---------5--||----------------------|-
D|-----7-10---||-----5-8----||----------5-8-5-------|-
A|-7h8--------||-5h6--------||-----5-8---------8-5--|-
E|------------||------------||-5h6------------------|-
Well, I feel like this when my baby can't be found

Verse3: 01:00
G|------------------||--------------------|-
D|------------------||--------------------|-
A|------------------||-----------------5g-|-
E|--6r/-6r/-6r/-6r/-||--6r/-6r/-6r-6789---|-
I love you babe with all my heart and soul,
love like mine will never grow old"
I Love you in the morning and in the evening too
Every time you leave me girl I get mad with you

Chorus:> 
G|---------5--||---------5--||----------------------|-
D|-----5-8----||-----5-8----||----------5-8-5-------|-
A|-5h6--------||-5h6--------||-----5-8---------8-5--|-
E|------------||------------||-5h6------------------|-
I'm tore down, I'm almost level with the ground

G|----------7-||---------5--||----------------------|-
D|-----7-10---||-----5-8----||----------5-8-5-------|-
A|-7h8--------||-5h6--------||-----5-8---------8-5--|-
E|------------||------------||-5h6------------------|-
Well, I feel like this when my baby can't be found... hey...

Instrumental: 01:27  (Play X2)
G|------------||------------||----------------------|-
D|---------5--||----------5-||----------5-6-5-------|-
A|-----5-8----||------5-8---||-----5-8---------8-5--|-
E|-5h6--------||-5h6--------||-5h6------------------|-

G|---------5--||---------5--||----------------------|-
D|-----5-8----||-----5-8----||----------5-8-5-------|-
A|-5h6--------||-5h6--------||-----5-8---------8-5--|-
E|------------||------------||-5h6------------------|-

G|----------7-||---------5--||----------------------|-
D|-----7-10---||-----5-8----||----------5-8-5-------|-
A|-7h8--------||-5h6--------||-----5-8---------8-5--|-
E|------------||------------||-5h6------------------|-

Verse4: 02:06
G|------------------||------------------|-
D|------------------||------------------|-
A|------------------||------------------|-
E|--6r--6r--6r--6r--||--6r--6r--6r-6789-|-
I love you baby with all my might;
love like mine is out of sight
I'll lie for you if you want me to
 But when you leave me girl I've got something to do

Chorus:
G|---------5--||---------5--||----------------------|-
D|-----5-8----||-----5-8----||----------5-8-5-------|-
A|-5h6--------||-5h6--------||-----5-8---------8-5--|-
E|------------||------------||-5h6------------------|-
Well, I'm tore down, I'm almost level with the ground

G|----------7-||---------5--||----------------------|-
D|-----7-10---||-----5-8----||----------5-8-5-------|-
A|-7h8--------||-5h6--------||-----5-8---------8-5--|-
E|------------||------------||-5h6------------------|-
Well, I feel like this when my baby can't be found



Chorus: 02:32
G|------------||------------||----------------------|-
D|---------5--||----------5-||----------5-6-5-------|-
A|-----5-8----||------5-8---||-----5-8---------8-5--|-
E|-5h6--------||-5h6--------||-5h6------------------|-
Well, I'm tore down, I'm almost level with the ground

G|---------5--||---------5--||----------------------|-
D|-----5-8----||-----5-8----||----------5-8-5-------|-
A|-5h6--------||-5h6--------||-----5-8---------8-5--|-
E|------------||------------||-5h6------------------|-
Well, I'm tore down, I'm almost level with the ground

G|----------7-||---------5--||----------------------|-
D|-----7-10---||-----5-8----||----------5-8-5-------|-
A|-7h8--------||-5h6--------||-----5-8---------8-5--|-
E|------------||------------||-5h6------------------|-
Well, I feel like this when my baby can't be found


Instrumental: 02:51  (Play X3)
G|------------||------------||----------------------|-
D|---------5--||----------5-||----------5-6-5-------|-
A|-----5-8----||------5-8---||-----5-8---------8-5--|-
E|-5h6--------||-5h6--------||-5h6------------------|-

G|---------5--||---------5--||----------------------|-
D|-----5-8----||-----5-8----||----------5-8-5-------|-
A|-5h6--------||-5h6--------||-----5-8---------8-5--|-
E|------------||------------||-5h6------------------|-

G|----------7-||---------5--||----------------------|-
D|-----7-10---||-----5-8----||----------5-8-5-------|-
A|-7h8--------||-5h6--------||-----5-8---------8-5--|-
E|------------||------------||-5h6------------------|-

Outro: 03:48 (play X1)
G|------------||------------||----------------------|-
D|---------5--||----------5-||----------5-6-5-------|-
A|-----5-8----||------5-8---||-----5-8---------8-5--|-
E|-5h6--------||-5h6--------||-5h6------------------|-

G|---------5--||---------5--||----------------------|-
D|-----5-8----||-----5-8----||----------5-8-5-------|-
A|-5h6--------||-5h6--------||-----5-8---------8-5--|-
E|------------||------------||-5h6------------------|-

G|----------7-||---------5--||----------------------||
D|-----7-10---||-----5-8----||-------  Guitar  -----||
A|-7h8--------||-5h6--------||------5---------------||
E|------------||------------||-5h6-------------6~~--||

End: 04:27

Tablature Legend ----------------
| r  bend and release
| S  slap
| P  pop
| x  mute note
| /  slide up
| \  slide down
| h  hammer-on
| p  pull-off
| g  grace note
| ~  vibrato
| ^  brush up
Добавлено: 18.11.2015
Другие материалы по этой песне:
  • Аккорды и текст

Страница создана 18.11.2015
http://primanota.ru/jeff-healey/im-tore-down-chords.htm
Привет, Гость.
Предлагаем пройти революционный курс по гитаре.
Подарок от PrimaNota.Ru, забирай!