PrimaNota.ru - самый крупный в мире бесплатный архив песенных текстов, аккордов, табулатур и нот


Jeff Healey - Hideaway - таба, бас-таба, видео

Регистрация Запомнить меня
Войти через:  Facebook Google Twitter Vk Yandex Mail.ru

Jeff Healey - Hideaway - таба, бас-таба, видео

Печатать
Просмотров: 245
Уроки эстрадного вокала в Санкт-Петербурге
Tabbed by: Avery Maycock; standard tuning (e a d g b e)

h=hammer on
p=pull off                 INTRO
s=slide
e--------0-2s4-----------0-2s4-2p0---0-0--------0---0---0---0--0-0---------0-|
b--0-0h2-----------0-0h2-----------2---------0h2-0h2-0h2-0h2---------0-0h2---|
g----------------------------------------------------------------------------|
d----------------------------------------------------------------------------|
a----------------------------------------------------------------------------|
e----------------------------------------------------------------------------|

e-2s4-2p0---0-0---------------|     There it is! I hope you like it!
b---------2-------------------|
g-------------------7--6------|
d-------------------6--5------|
a-------------------7--6------|
e-----------------------------|
Добавлено: 13.03.2012
Другие материалы по этой песне:

Страница создана 13.03.2012
http://primanota.ru/jeff-healey/hideaway-chords.htm
Привет, Гость.
Предлагаем пройти революционный курс по гитаре.
Подарок от PrimaNota.Ru, забирай!