PrimaNota.ru - самый крупный в мире бесплатный архив песенных текстов, аккордов, табулатур и нот


Jeff Healey - Shake Rattle And Roll - бас-таба, видео

Регистрация Запомнить меня
Войти через:  Facebook Google Twitter Vk Yandex Mail.ru

Jeff Healey - Shake Rattle And Roll - бас-таба, видео

Печатать
Просмотров: 128
Jeff Healey Band
Shake, Rattle & Roll


Bass Tabs

Bassist: Joe Rockman

Tuning : EADG

Tempo : 89 bpm
Key: D (G/A) →  5th : A


Intro: 00:01   
G|-------4-5-4------||-------4-7-4------|-
D|---4-7--------7-4-||---4-7-------7-4--|-
A|-5----------------||-5----------------|- 
E|------------------||------------------|-

G|------------------||-------4-7-4------|-
D|-------2-5-2------||---4-7-------7-4--|-
A|---2-5-------5-2--||-5----------------|- 
E|-3----------------||------------------|-

G|------------------||-------4-7-4------|-
D|------------------||---4-7-------7-4--|-
A|------------------||-5----------------|- 
E|-5-0-3-4-5--3-2-0-||------------------|-


Verse1: 00:15   
G|-------4-5-4------||-------4-7-4------|-
D|---4-7--------7-4-||---4-7-------7-4--|-
A|-5----------------||-5----------------|- 
E|------------------||------------------|-
Well, Get out of that bed an wash your face and hands,

G|------------------||-------4-7-4------|-
D|-------2-5-2------||---4-7-------7-4--|-
A|---2-5-------5-2--||-5----------------|- 
E|-3----------------||------------------|-
Get out of that bed and wash your face and hands, 

G|------------------||-------4-7-4------|-
D|------------------||---4-7-------7-4--|-
A|------------------||-5----------------|- 
E|-5-0-3-4-5--3-2-0-||------------------|-
You better get in that kitchen 
and make some noise with the pots and pans, 

...Part2: 00:32 

G|-------4-5-4------||-------4-7--5-4---|-
D|---4-7--------7-4-||---4-7----------7-|-
A|-5----------------||-5----------------|- 
E|------------------||------------------|-
I believe to my soul you're the devil in nylon hose, 

G|------------------||-------4-7-4------|-
D|-------2-5-2------||---4-7-------7-4--|-
A|---2-5-------5-2--||-5----------------|- 
E|-3----------------||------------------|-
I believe to my soul you're the devil in nylon hose,
 
G|------------------||-------4-7-4------|-
D|------------------||---4-7-------7-4--|-
A|------------------||-5----------------|- 
E|-5-0-3-4-5--3-2-0-||------------------|-
The harder I work the faster my money goes


Chorus1: 00:49
G|-------4--------4-||-------4-7--5-4---|-
D|---4-7------4-7---||---4-7----------7-|-
A|-5--------5-------||-5----------------|- 
E|------------------||------------------|-
I say, shake, rattle and roll,

G|------------------||-------4-7-4------|-
D|-------2--------2-||---4-7-------7-4--|-
A|---2-5------2-5---||-5----------------|- 
E|-3--------3-------||------------------|-
Shake, rattle and roll, 

G|------------------||------------5-6-7-|-
D|------------------||---4-5-6-7--------|-
A|------------------||-5----------------|- 
E|-5-0-3-4-5--3-2-0-||------------------|-
Shake, rattle and roll,
Shake, rattle and roll, 


Instrumental(1): 01:05 
G|-------4--------4-||-------4-7--5-4---|-
D|---4-7------4-7---||---4-7----------7-|-
A|-5--------5-------||-5----------------|- 
E|------------------||------------------|-

G|------------------||-------4-7-4------|-
D|-------2--------2-||---4-7-------7-4--|-
A|---2-5------2-5---||-5----------------|- 
E|-3--------3-------||------------------|-

G|------------------||------------5-6-7-|-
D|------------------||---4-5-6-7--------|-
A|------------------||-5----------------|- 
E|-5-0-3-4-5--3-2-0-||------------------|-

... 

G|-------4--------4-||-------4-7--5-4---|-
D|---4-7------4-7---||---4-7----------7-|-
A|-5--------5-------||-5----------------|- 
E|------------------||------------------|-

G|------------------||-------4-7-4------|-
D|-------2--------2-||---4-7-------7-4--|-
A|---2-5------2-5---||-5----------------|- 
E|-3--------3-------||------------------|-

G|------------------||------------------|-
D|------------------||---4-5-6-7--5-4---|-
A|------------------||-5--------------7-|- 
E|-5-0-3-4-5--3-2-0-||------------------|-

...

G|-------4--------4-||-------4-7--5-4---|-
D|---4-7------4-7---||---4-7----------7-|-
A|-5--------5-------||-5----------------|- 
E|------------------||------------------|-

G|------------------||-------4-7-4------|-
D|-------2--------2-||---4-7-------7-4--|-
A|---2-5------2-5---||-5----------------|- 
E|-3--------3-------||------------------|-

G|------------------||------------7-4---|-
D|------------------||---4-5-6-7------7-|-
A|------------------||-5----------------|- 
E|-5-0-3-4-5--3-2-0-||------------------|-

...

G|-------4--------4-||-------4-7--5-4---|-
D|---4-7------4-7---||---4-7----------7-|-
A|-5--------5-------||-5----------------|- 
E|------------------||------------------|-

G|------------------||-------4-7-4------|-
D|-------2--------2-||---4-7-------7-4--|-
A|---2-5------2-5---||-5----------------|- 
E|-3--------3-------||------------------|-

G|------------------||-------4-7-4------|-
D|------------------||---4-7-------7-4--|-
A|------------------||-5----------------|- 
E|-5-0-3-4-5--3-2-0-||------------------|-


Verse2: 02:09   
G|-------4-5-4------||-------4-7-4------|-
D|---4-7--------7-4-||---4-7-------7-4--|-
A|-5----------------||-5----------------|- 
E|------------------||------------------|-
I'm like a one eyed cat, 
peepin' in a sea food store,

G|------------------||-------4-7-4------|-
D|-------2-5-2------||---4-7-------7-4--|-
A|---2-5-------5-2--||-5----------------|- 
E|-3----------------||------------------|-
I'm like a one eyed cat, 
peepin' in a sea food store, 

G|------------------||-------4-7-4------|-
D|------------------||---4-7-------7-4--|-
A|------------------||-5----------------|- 
E|-5-0-3-4-5--3-2-0-||------------------|-
Well, I can look at you and tell, 
you don't love me no more. 


...Part2: 02:25 

G|-------4-5-4------||-------4-7--5-4---|-
D|---4-7--------7-4-||---4-7----------7-|-
A|-5----------------||-5----------------|- 
E|------------------||------------------|-
Well, you wear a new dress 
The sun comes shining through 

G|------------------||-------4-7-4------|-
D|-------2-5-2------||---4-7-------7-4--|-
A|---2-5-------5-2--||-5----------------|- 
E|-3----------------||------------------|-
Well, you wear a new dress 
The sun comes shining through 

G|------------------||-------4-7-4------|-
D|------------------||---4-7-------7-4--|-
A|------------------||-5----------------|- 
E|-5-0-3-4-5--3-2-0-||------------------|-
Oh, I can't believe 
that dress belongs to you,


Chorus2: 02:41 
G|-------4--------4-||-------4-7--5-4---|-
D|---4-7------4-7---||---4-7----------7-|-
A|-5--------5-------||-5----------------|- 
E|------------------||------------------|-
I say, shake, rattle and roll, 

G|------------------||-------4-7-4------|-
D|-------2--------2-||---4-7-------7-4--|-
A|---2-5------2-5---||-5----------------|- 
E|-3--------3-------||------------------|-
Shake, rattle and roll, 

G|------------------||------------5-6-7-|-
D|------------------||---4-5-6-7--------|-
A|------------------||-5----------------|- 
E|-5-0-3-4-5--3-2-0-||------------------|-
Shake, rattle and roll, 
Shake, rattle and roll, 


Instrumental(2): 02:57 
G|-------4--------4-||-------4-7--5-4---|-
D|---4-7------4-7---||---4-7----------7-|-
A|-5--------5-------||-5----------------|- 
E|------------------||------------------|-

G|------------------||-------4-7-4------|-
D|-------2--------2-||---4-7-------7-4--|-
A|---2-5------2-5---||-5----------------|- 
E|-3--------3-------||------------------|-

G|------------------||------------5-6-7-|-
D|------------------||---4-5-6-7--------|-
A|------------------||-5----------------|- 
E|-5-0-3-4-5--3-2-0-||------------------|-

... 

G|-------4--------4-||-------4-7--5-4---|-
D|---4-7------4-7---||---4-7----------7-|-
A|-5--------5-------||-5----------------|- 
E|------------------||------------------|-

G|------------------||-------4-7-4------|-
D|-------2--------2-||---4-7-------7-4--|-
A|---2-5------2-5---||-5----------------|- 
E|-3--------3-------||------------------|-

G|------------------||------------------|-
D|------------------||---4-5-6-7--5-4---|-
A|------------------||-5--------------7-|- 
E|-5-0-3-4-5--3-2-0-||------------------|-

...

G|-------4--------4-||-------4-7--5-4---|-
D|---4-7------4-7---||---4-7----------7-|-
A|-5--------5-------||-5----------------|- 
E|------------------||------------------|-

G|------------------||-------4-7-4------|-
D|-------2--------2-||---4-7-------7-4--|-
A|---2-5------2-5---||-5----------------|- 
E|-3--------3-------||------------------|-

G|------------------||------------7-4---|-
D|------------------||---4-5-6-7------7-|-
A|------------------||-5----------------|- 
E|-5-0-3-4-5--3-2-0-||------------------|-


Verse3: 03:44   
G|-------4-5-4------||-------4-7-4------|-
D|---4-7--------7-4-||---4-7-------7-4--|-
A|-5----------------||-5----------------|- 
E|------------------||------------------|-
I've been over the hill
way down underneath

G|------------------||-------4-7-4------|-
D|-------2-5-2------||---4-7-------7-4--|-
A|---2-5-------5-2--||-5----------------|- 
E|-3----------------||------------------|-
I've been over the hill
way down underneath

G|------------------||-------4-7-4------|-
D|------------------||---4-7-------7-4--|-
A|------------------||-5----------------|- 
E|-5-0-3-4-5--3-2-0-||------------------|-
You made me roll my eyes
Then you made me grit my teeth, 

Chorus3: 04:01 
G|-------4--------4-||-------4-7--5-4---|-
D|---4-7------4-7---||---4-7----------7-|-
A|-5--------5-------||-5----------------|- 
E|------------------||------------------|-
I say, shake, rattle and roll, 

G|------------------||-------4-7-4------|-
D|-------2--------2-||---4-7-------7-4--|-
A|---2-5------2-5---||-5----------------|- 
E|-3--------3-------||------------------|-
Shake, rattle and roll, 

G|------------------||------------7-4g------|-
D|------------------||---4-5-6-7------------|-
A|------------------||-5----------------5~~-|- 
E|-5-0-3-4-5--3-2-0-||----------------------|-
Shake, rattle and roll, 
Shake, rattle and roll, 


End: 04:29



Tablature Legend ----------------  
| S  slap
| .  full stop 
| P  pop 
| x  mute note 
| /  slide up 
| \  slide down 
| h  hammer-on 
| p  pull-off 
| g  grace note 
| ~  vibrato 
| ^  brush up
Добавлено: 11.11.2015
Другие материалы по этой песне:
  • Аккорды и текст

Страница создана 11.11.2015
http://primanota.ru/jeff-healey/shake-rattle-and-roll-chords.htm
Привет, Гость.
Предлагаем пройти революционный курс по гитаре.
Подарок от PrimaNota.Ru, забирай!