PrimaNota.ru - самый крупный в мире бесплатный архив песенных текстов, аккордов, табулатур и нот


Пасториус Жако - River people - таба, видео

Регистрация Запомнить меня
Войти через:  Facebook Google Twitter Vk Yandex Mail.ru

Пасториус Жако - River people - таба, видео

Печатать
Просмотров: 104


River People - Jaco Pastorius
Mr. Gone

MAX COBURN
maximum28@aol.com

10th fret = )
11th fret =  
13th fret = #
15th fret = %

Time: 4/4
Tempo: 90
Tuning: EADG

This: 6x
___________________________________________________________________
  v       ^       ^       ^       v       ^       ^       ^       
G ------------9-9-----7-7-------------9-9-----7-7-----2-2---------|
D ------------------------------------------------------------5-5-|
A --------7-7-----5-5-------------7-7-----5-5-----0-0-------------|
E --------------------------------------------------------3-3-----|
___________________________________________________________________

  v       ^       ^       ^       v       ^       ^       ^       
G --------------------8---------------9-9-----6-6-----4-4---------|
D ----2-2-----6-6---6-----------------------------------------4-4-|
A ----------------4---------------7-7-----4-4-----2-2-------------|
E 0-0-----4-4---------------------------------------------2-2-----|


  v       ^       ^       ^       v       ^       ^       ^       
G ------------4-4-----%---------------9-9-------------6-6---------|
D ----2-2-----------#-------------------------6-6-------------4-4-|
A --------2-2----- ---------------7-7-------------4-4-------------|
E 0-0-------------------------------------4-4-------------2-2-----|


  v       ^       ^       ^       v       ^       ^       ^       
G ------------9-9-----7-7-------------9-9-----7-7-----2-2---------|
D ------------------------------------------------------------5-5-|
A --------7-7-----5-5-------------7-7-----5-5-----0-0-------------|
E --------------------------------------------------------3-3-----|


  v       ^       ^       ^       v       ^       ^       ^       
G ------------9-9-----7-7-------------9-9-----7-7-----2-2---------|
D ----------------------------------------------------------7-5-5-|
A --------7-7-----5-5-------------7-7-----5-5-----0-0-------------|
E --------------------------------------------------------3-------|

  v       ^       ^       ^       v       ^       ^       ^   
G ------------6-6-----7-7-------------9-9-----6-6-----7-7---------|
D ----2-2-----------------------------------------------------4-4-|
A --------4-4-----5-5-------------7-7-----4-4-----5-5-------------|
E 0-0-----------------------------------------------------2-2-----|

  v       ^       ^       ^       v       ^       ^       ^   
G ------------6-6-----7-7-------------9-9-----6-6-----7-7-----2-2-|
D ----2-2---------------------------------------------------------|
A --------4-4-----5-5-------------7-7-----4-4-----5-5-----0-0-----|
E 0-0-------------------------------------------------------------|

This: 5x
___________________________________________________________________
  v       ^       ^       ^       v       ^       ^       ^       
G ------------9-9-----7-7-------------9-9-----7-7-----2-2---------|
D ------------------------------------------------------------5-5-|
A --------7-7-----5-5-------------7-7-----5-5-----0-0-------------|
E --------------------------------------------------------3-3-----|
___________________________________________________________________

  v       ^       ^       ^       v       ^       ^       ^       
G --------------------8---------------9-9-----6-6-----4-4---------|
D ----2-2-----6-6---6-----------------------------------------4-4-|
A ----------------4---------------7-7-----4-4-----2-2-------------|
E 0-0-----4-4---------------------------------------------2-2-----|


  v       ^       ^       ^       v       ^       ^       ^       
G ------------4-4-----%---------------9-9-------------6-6---------|
D ----2-2-----------#-------------------------6-6-------------4-4-|
A --------2-2----- ---------------7-7-------------4-4-------------|
E 0-0-------------------------------------4-4-------------2-2-----|


  v       ^       ^       ^       v       ^       ^       ^       
G ------------9-9-----7-7-------------9-9-----7-7-----2-2---------|
D ------------------------------------------------------------5-5-|
A --------7-7-----5-5-------------7-7-----5-5-----0-0-------------|
E --------------------------------------------------------3-3-----|


  v       ^       ^       ^       v       ^       ^       ^       
G ------------9-9-----7-7-------------9-9-----7-7-----2-2---------|
D ------------------------------------------------------------5-5-|
A --------7-7-----5-5-------------7-7-----5-5-----0-0-------------|
E --------------------------------------------------------3-3-----|

  v       ^       ^       ^       v       ^       ^       ^   
G ------------6-6-----7-7-------------9-9-----6-6-----7-7---------|
D ----2-2-----------------------------------------------------4-4-|
A --------4-4-----5-5-------------7-7-----4-4-----5-5-------------|
E 0-0-----------------------------------------------------2-2-----|

  v       ^       ^       ^       v       ^       ^       ^   
G ------------6-6-----7-7-------------9-9-----6-6-----7-7-----2-2-|
D ----2-2---------------------------------------------------------|
A --------4-4-----5-5-------------7-7-----4-4-----5-5-----0-0-----|
E 0-0-------------------------------------------------------------|

  v       ^       ^       ^       v       ^       ^       ^   
G ----)-)-----7-7-----8-8-------------)-)-----8-8-----3-3---------|
D ------------------------------------------------------------6-6-|
A 8-8-----5-5-----6-6-------------8-8-----6-6-----1-1-------------|
E --------------------------------------------------------4-4-----|

  v       ^       ^       ^       v       ^       ^       ^   
G ------------)-)-----8-8-------------)-)-------------8-8---------|
D --------------------------------------------8-8-----------------|
A --------8-8-----6-6-------------8-8-------------6-6-------------|
E ----------------------------------------6-6-------------1=======|

SOLO RIFF:
___________________________________________________________________
  v       ^       ^       ^       v       ^       ^       ^   
G ------------7-7-----8-8-------------)-)-----7-7-----8-8---------|
D ----3-3-----------------------------------------------------6-6-|
A --------5-5-----6-6-------------8-8-----5-5-----6-6-------------|
E 1-1-----------------------------------------------------4-4-----|

  v       ^       ^       ^       v       ^       ^       ^   
G ------------7-7-----8-8-------------)-)-----7-7-----8-8---------|
D ----3-3---------------------------------------------------------|
A --------5-5-----6-6-------------8-8-----5-5-----6-6-------------|
E 1-1-----------------------------------------------------1=======|
___________________________________________________________________

FADE OUT RIFF:
___________________________________________________________________
  v       ^       ^       ^       v       ^       ^       ^   
G ----)-)---8-5---5-----------)-)---8-5---5-------)-)---8-5---5---|
D --------8-----3---3-3-3=====----------3---3-3-3-----------3-----|
A 8-8-----------------------------8-------------------8---------8-|
E ----------------------------------------------------------------|

Добавлено: 29.10.2013
Вам также может быть интересно:
Другие материалы по этой песне:
  • Аккорды и текст

Страница создана 29.10.2013
http://primanota.ru/jaco-pastorius/river-people-chords.htm
Привет, Гость.
Предлагаем пройти революционный курс по гитаре.
Подарок от PrimaNota.Ru, забирай!