PrimaNota.ru - самый крупный в мире бесплатный архив песенных текстов, аккордов, табулатур и нот


Пасториус Жако - Walking Talking - бас-таба, видео

Регистрация Запомнить меня
Войти через:  Facebook Google Twitter Vk Yandex Mail.ru

Пасториус Жако - Walking Talking - бас-таба, видео

Печатать
Просмотров: 120
Уроки эстрадного вокала в Санкт-Петербурге
jaco_pastorius-walking_talking.btab

Basstab by Jan Bjorklund, Finland; 
jani_bjorklund@yahoo.se 
You are welcome to request for basstabs!
Bienvenidos a pedirme transcripciones para el bajo!
Fingering and positions as suggested by TablEdit. 

TablEdited by Jan Bjorklund
Tuning : E A D G 	Time Signature: 4/4

 |       |       |       |        |       |       |       |        
|--------------------------------|--------------------------------|
|--------------------------------|--------------------------------|
|--------------------------------|--------------------------------|
|6-----------6-------6-----------|------------1-------1-----1-----|

 |       |       |       |        |       |       |       |        
|--------------------------------|--------------------------------|
|--------------------------------|--6-----------------------------|
|------------3-------3-----------|----------6---------------------|
|3-------------------------------|9-------------------------------|

 |       |       |       |        |       |       |       |        
|--------------------------------|--------------------------------|
|----3---------------------------|--------------------------------|
|--------------------------------|------------------3-------------|
|6-----------6-------6-----6-----|1-----------1-------1-----------|

 |       |       |       |        |       |        
|--------------------------------|----------------|
|--------------------------------|6---------------|
|------------3-------------------|4---------------|
|3-------------------------------|----------------|

 |       |        |       |        |       |        
|----------------|----------------|6---------------|
|----------------|4---------------|4---------------|
|----3-----------|----------------|----------------|
|----------------|7---------------|----------------|

 |       |        |       |        |       |        
|1---------------|2---------------|----------------|
|----------------|0---------------|----------------|
|4---------------|----------------|----------------|
|----------------|----------------|----------------|

 |       |        |       |        |       |        
|----------------|6---------------|1---------------|
|4---------------|4---------------|----------------|
|----------------|----------------|4---------------|
|7---------------|----------------|----------------|

 |       |       |       |        |       |       |       |        
|2-------------------------------|--------------------------------|
|0-------------------------------|--------------------------------|
|--------------------------------|--------------------------------|
|--------------------------------|6-----------6-------6-----------|

 |       |       |       |        |       |       |       |        
|--------------------------------|--------------------------------|
|--------------------------------|--------------------------------|
|--------------------------------|------------3-------3-----------|
|------------1-------1-----1-----|3-------------------------------|

 |       |       |       |        |       |       |       |        
|--------------------------------|--------------------------------|
|--6-----------------------------|----3---------------------------|
|----------6---------------------|--------------------------------|
|9-------------------------------|6-----------6-------6-----6-----|

 |       |       |       |        |       |       |       |        
|--------------------------------|--------------------------------|
|--------------------------------|--------------------------------|
|------------------3-------------|------------3-------------------|
|1-----------1-------1-----------|3-------------------------------|

 |       |        |       |       |       |        
|----------------|--------------------------------|
|6---------------|--------------------------------|
|4---------------|--------------------------------|
|----------------|--------------------------------|

 |       |       |       |        |       |       |       |        
|--------------------------------|--------------------------------|
|0-------------------------------|--------------------------------|
|--------------------------------|--------------------------------|
|--------------------------------|--------------------------------|

 |       |       |       |        |       |       |       |        
|--------------------------------|--------------------------------|
|--------------------------------|--------------------------------|
|--------------------------------|--------------------------------|
|--------------------------------|--------------------------------|

 |       |       |       |        |       |       |       |        
|--------------------------------|--------------------------------|
|--------------------------------|--------------------------------|
|--------------------------------|--------------------------------|
|--------------------------------|--------------------------------|

 |       |       |       |        |       |       |       |        
|--------------------------------|--------------------------------|
|--------------------------------|--------------------------------|
|--------------------------------|--------------------------------|
|--------------------------------|--------------------------------|

 |       |       |       |        |       |       |       |        
|--------------------------------|--------------------------------|
|--------------------------------|--------------------------------|
|--------------------------------|--------------------------------|
|--------------------------------|--------------------------------|

 |       |       |       |        |       |       |       |        
|--------------------------------|--------------------------------|
|--------------------------------|--------------------------------|
|--------------------------------|--------------------------------|
|--------------------------------|--------------------------------|

 |       |       |       |        |       |       |       |        
|--------------------------------|--------------------------------|
|0-----------0---0---------------|----------------------------0---|
|--------------------------------|--------------------------------|
|--------------------------------|--------------------------------|

 |       |       |       |        |       |       |       |        
|--------------------------------|--------------------------------|
|0-----------0---0-----------0---|0---0---0-----------------------|
|--------------------------------|--------------------------------|
|--------------------------------|--------------------------------|

 |       |       |       |        |       |       |       |        
|--------------------------------|--------------------------------|
|0-----------0---0---------------|----------------------------0---|
|--------------------------------|--------------------------------|
|--------------------------------|--------------------------------|

 |       |       |       |        |       |       |       |        
|--------------------------------|--------------------------------|
|0-----------0---0-----------0---|0---0---0-----------------------|
|--------------------------------|--------------------------------|
|--------------------------------|--------------------------------|

 |       |       |       |        |       |       |       |        
|--------------------------------|--------------------------------|
|0---0---0-------0-----------0---|0-------0-------------------0---|
|--------------------------------|----0---------------------------|
|--------------------------------|--------------------------------|

 |       |       |       |        |       |       |       |        
|--------------------------------|--------------------------------|
|0-----------0---0-----------0---|0---0---0-----------------------|
|--------------------------------|----------------------------0---|
|--------------------------------|--------------------------------|

 |       |       |       |        |       |       |       |        
|--------------------------------|--------------------------------|
|0---0---0-------0-----------0---|0-------0-------------------0---|
|--------------------------------|----0---------------------------|
|--------------------------------|--------------------------------|

 |       |       |       |        |       |       |       |        
|--------------------------------|--------------------------------|
|0-----------0---0-----------0---|0---0---0-----------------------|
|--------------------------------|----------------------------0---|
|--------------------------------|--------------------------------|

 |       |       |       |        |       |       |       |        
|--------------------------------|--------------------------------|
|0---0---0---0-----------0-------|0-------0-------------------0---|
|--------------------------------|--------------------------------|
|--------------------0-----------|----3---------------------------|

 |       |       |       |        |       |       |       |        
|--------------------------------|--------------------------------|
|----0---0---0-------------------|0---0---0-----------------------|
|----------------------------3---|------------------------3---4---|
|----------------0---------------|--------------------------------|

 |       |       |       |        |       |       |       |        
|--------------------------------|--------------------------------|
|0---0---0---0-----------0-------|0-------0-------------------0---|
|--------------------------------|--------------------------------|
|--------------------0-----------|----3---------------------------|

 |       |       |       |        |       |       |       |        
|--------------------------------|--------------------------------|
|----0---0---0-------------------|0---0---0-----------------------|
|----------------------------3---|------------------------3---4---|
|----------------0---------------|--------------------------------|

 |       |       |       |        |       |       |       |        
|--------------------------------|--------------------------------|
|0---0-----------0---0---0-------|0-0-----0-------0-----------0---|
|--------3---3-------------------|----3-3-----0-------------------|
|--------------------------------|--------------------------------|

 |       |       |       |        |       |       |       |        
|--------------------------------|--------------------------------|
|----0---0-------3---------------|0---0---0---0-------------------|
|------------3---------------3---|----------------------------3-4-|
|--------------------------------|--------------0-1---------------|

 |       |       |       |        |       |       |       |        
|--------------------------------|--------------------------------|
|0---0-----------0---0---0-------|0-0-----0-------0-----------0---|
|--------3---3-------------------|----3-3-----0-------------------|
|--------------------------------|--------------------------------|

 |       |       |       |        |       |       |       |        
|--------------------------------|--------------------------------|
|----0---0-------3---------------|0---0---0---0-------------------|
|------------3---------------3---|----------------------------3-4-|
|--------------------------------|--------------0-1---------------|

 |       |       |       |        |       |       |       |        
|--------------------------------|--------------------------------|
|0-------------------------------|--------------------------------|
|--------------------------------|--------------------------------|
|----------------0-----------1---|------------0---1---0---1-------|

 |       |       |       |        |       |       |       |        
|--------------------------------|--------------------------------|
|0-------------------------------|----0---0-------2-3-2-0---------|
|------------------------2---3---|------------------------2-0-----|
|------------0---1---------------|----------------------------1-0-|

 |       |       |       |        |       |       |       |        
|--------------------------------|--------------------------------|
|0-------------------------------|--------------------------------|
|--------------------------------|--------------------------------|
|----------------0-----------1---|------------0---1---0---1-------|

 |       |       |       |        |       |       |       |        
|--------------------------------|--------------------------------|
|0-------------------------------|----0---0-------2-3-2-0---------|
|------------------------2---3---|------------------------2-0-----|
|------------0---1---------------|----------------------------1-0-|

 |       |       |       |        |       |       |       |        
|--------------------------------|--------------------------------|
|0---0---0-----------------------|----------------0-------0-------|
|--------------------------------|--------------------------------|
|----------------0-----------1---|----1---1---0-------1-----------|

 |       |       |       |        |       |       |       |        
|--------------------------------|--------------------------------|
|--------------------------------|----0---0-----------2---2-------|
|--------------------0---2---3---|----------------------------3-0-|
|------------0---1---------------|--------------------------------|

 |       |       |       |        |       |       |       |        
|--------------------------------|--------------------0-----------|
|0---0-------0-------2-----------|----3---------------------------|
|--------------------------------|--------------------------------|
|----------------0-----------1---|------------1---3-------3-------|

 |       |       |       |        |       |       |       |        
|2-------------------------------|--------------------------------|
|--------------------------------|--------------------------------|
|0---------------------------0---|------------0---0---------------|
|--------------------------------|----------------------------1---|

 |       |       |       |        |       |       |       |        
|--------------------------------|--------------------------------|
|0-------------------------------|--------------------------------|
|--------------------------------|--------------------------------|
|--------------------------------|--------------------------------|

 |       |       |       |        |       |       |       |        
|--------------------------------|--------------------------------|
|--------------------------------|--------------------------------|
|--------------------------------|--------------------------------|
|--------------------------------|--------------------------------|

 |       |       |       |        |       |       |       |        
|--------------------------------|--------------------------------|
|--------------------------------|--------------------------------|
|--------------------------------|--------------------------------|
|--------------------------------|--------------------------------|

 |       |       |       |        |       |       |       |        
|--------------------------------|--------------------------------|
|--------------------------------|--------------------------------|
|--------------------------------|--------------------------------|
|--------------------------------|--------------------------------|

 |       |       |       |        |       |       |       |        
|--------------------------------|--------------------------------|
|--------------------------------|--------------------------------|
|--------------------------------|--------------------------------|
|--------------------------------|--------------------------------|

 |       |       |       |        |       |       |       |        
|--------------------------------|--------------------------------|
|--------------------------------|--------------------------------|
|--------------------------------|--------------------------------|
|--------------------------------|--------------------------------|

 |       |       |       |        |       |       |       |        
|--------------------------------|--------------------------------|
|0-----------0---0---------------|----------------------------0---|
|--------------------------------|--------------------------------|
|--------------------------------|--------------------------------|

 |       |       |       |        |       |       |       |        
|--------------------------------|--------------------------------|
|0-----------0---0-----------0---|0---0---0-----------------------|
|--------------------------------|--------------------------------|
|--------------------------------|--------------------------------|

 |       |       |       |        |       |       |       |        
|--------------------------------|--------------------------------|
|0-----------0---0---------------|----------------------------0---|
|--------------------------------|--------------------------------|
|--------------------------------|--------------------------------|

 |       |       |       |        |       |       |       |        
|--------------------------------|--------------------------------|
|0-----------0---0-----------0---|0---0---0-----------------------|
|--------------------------------|--------------------------------|
|--------------------------------|--------------------------------|

 |       |       |       |        |       |       |       |        
|--------------------------------|--------------------------------|
|0---0---0-------0-----------0---|0-------0-------------------0---|
|--------------------------------|----0---------------------------|
|--------------------------------|--------------------------------|

 |       |       |       |        |       |       |       |        
|--------------------------------|--------------------------------|
|0-----------0---0-----------0---|0---0---0-----------------------|
|--------------------------------|----------------------------0---|
|--------------------------------|--------------------------------|

 |       |       |       |        |       |       |       |        
|--------------------------------|--------------------------------|
|0---0---0-------0-----------0---|0-------0-------------------0---|
|--------------------------------|----0---------------------------|
|--------------------------------|--------------------------------|

 |       |       |       |        |       |       |       |        
|--------------------------------|--------------------------------|
|0-----------0---0-----------0---|0---0---0-----------------------|
|--------------------------------|----------------------------0---|
|--------------------------------|--------------------------------|

 |       |       |       |        |       |       |       |        
|--------------------------------|--------------------------------|
|0---0---0---0-----------0-------|0-------0-------------------0---|
|--------------------------------|--------------------------------|
|--------------------0-----------|----3---------------------------|

 |       |       |       |        |       |       |       |        
|--------------------------------|--------------------------------|
|----0---0---0-------------------|0---0---0-----------------------|
|----------------------------3---|------------------------3---4---|
|----------------0---------------|--------------------------------|

 |       |       |       |        |       |       |       |        
|--------------------------------|--------------------------------|
|0---0---0---0-----------0-------|0-------0-------------------0---|
|--------------------------------|--------------------------------|
|--------------------0-----------|----3---------------------------|

 |       |       |       |        |       |       |       |        
|--------------------------------|--------------------------------|
|----0---0---0-------------------|0---0---0-----------------------|
|----------------------------3---|------------------------3---4---|
|----------------0---------------|--------------------------------|

 |       |       |       |        |       |       |       |        
|--------------------------------|--------------------------------|
|0---0-----------0---0---0-------|0-0-----0-------0-----------0---|
|--------3---3-------------------|----3-3-----0-------------------|
|--------------------------------|--------------------------------|

 |       |       |       |        |       |       |       |        
|--------------------------------|--------------------------------|
|----0---0-------3---------------|0---0---0---0-------------------|
|------------3---------------3---|----------------------------3-4-|
|--------------------------------|--------------0-1---------------|

 |       |       |       |        |       |       |       |        
|--------------------------------|--------------------------------|
|0---0-----------0---0---0-------|0-0-----0-------0-----------0---|
|--------3---3-------------------|----3-3-----0-------------------|
|--------------------------------|--------------------------------|

 |       |       |       |        |       |       |       |        
|--------------------------------|--------------------------------|
|----0---0-------3---------------|0---0---0---0-------------------|
|------------3---------------3---|----------------------------3-4-|
|--------------------------------|--------------0-1---------------|

 |       |       |       |        |       |       |       |        
|--------------------------------|--------------------------------|
|0-------------------------------|--------------------------------|
|--------------------------------|--------------------------------|
|----------------0-----------1---|------------0---1---0---1-------|

 |       |       |       |        |       |       |       |        
|--------------------------------|--------------------------------|
|0-------------------------------|----0---0-------2-3-2-0---------|
|------------------------2---3---|------------------------2-0-----|
|------------0---1---------------|----------------------------1-0-|

 |       |       |       |        |       |       |       |        
|--------------------------------|--------------------------------|
|0-------------------------------|--------------------------------|
|--------------------------------|--------------------------------|
|----------------0-----------1---|------------0---1---0---1-------|

 |       |       |       |        |       |       |       |        
|--------------------------------|--------------------------------|
|0-------------------------------|----0---0-------2-3-2-0---------|
|------------------------2---3---|------------------------2-0-----|
|------------0---1---------------|----------------------------1-0-|

 |       |       |       |        |       |       |       |        
|--------------------------------|--------------------------------|
|0---0---0-----------------------|----------------0-------0-------|
|--------------------------------|--------------------------------|
|----------------0-----------1---|----1---1---0-------1-----------|

 |       |       |       |        |       |       |       |        
|--------------------------------|--------------------------------|
|--------------------------------|----0---0-----------2---2-------|
|--------------------0---2---3---|----------------------------3-0-|
|------------0---1---------------|--------------------------------|

 |       |       |       |        |       |       |       |        
|--------------------------------|--------------------0-----------|
|0---0-------0-------2-----------|----3---------------------------|
|--------------------------------|--------------------------------|
|----------------0-----------1---|------------1---3-------3-------|

 |       |       |       |        |       |       |       |        
|2-------------------------------|--------------------------------|
|--------------------------------|--------------------------------|
|0---------------------------0---|------------0---0---------------|
|--------------------------------|--------------------------------|

 |       |       |       |        |       |       |       |        
|--------------------------------|--------------------------------|
|--------------------------------|--------------------------------|
|--------------------------------|--------------------------------|
|6-----------6-------6-----------|------------1-------1-----1-----|

 |       |       |       |        |       |       |       |        
|--------------------------------|--------------------------------|
|--------------------------------|--6-----------------------------|
|------------3-------3-----------|----------6---------------------|
|3-------------------------------|9-------------------------------|

 |       |       |       |        |       |       |       |        
|--------------------------------|--------------------------------|
|----3---------------------------|--------------------------------|
|--------------------------------|------------------3-------------|
|6-----------6-------6-----6-----|1-----------1-------1-----------|

 |       |       |       |        |       |        
|--------------------------------|----------------|
|--------------------------------|6---------------|
|------------3-------------------|4---------------|
|3-------------------------------|----------------|

 |       |        |       |        |       |        
|----------------|----------------|6---------------|
|----------------|4---------------|4---------------|
|----3-----------|----------------|----------------|
|----------------|7---------------|----------------|

 |       |        |       |        |       |        
|1---------------|2---------------|----------------|
|----------------|0---------------|----------------|
|4---------------|----------------|----------------|
|----------------|----------------|----------------|

 |       |        |       |        |       |        
|----------------|6---------------|1---------------|
|4---------------|4---------------|----------------|
|----------------|----------------|4---------------|
|7---------------|----------------|----------------|

 |       |       |       |        |       |       |       |        
|2-------------------------------|--------------------------------|
|0-------------------------------|--------------------------------|
|--------------------------------|--------------------------------|
|--------------------------------|6-----------6-------6-----------|

 |       |       |       |        |       |       |       |        
|--------------------------------|--------------------------------|
|--------------------------------|--------------------------------|
|--------------------------------|------------3-------3-----------|
|------------1-------1-----1-----|3-------------------------------|

 |       |       |       |        |       |       |       |        
|--------------------------------|--------------------------------|
|--6-----------------------------|----3---------------------------|
|----------6---------------------|--------------------------------|
|9-------------------------------|6-----------6-------6-----6-----|

 |       |       |       |        |       |       |       |        
|--------------------------------|--------------------------------|
|--------------------------------|--------------------------------|
|------------------3-------------|------------3-------------------|
|1-----------1-------1-----------|3-------------------------------|

 |       |        |       |       |       |        
|----------------|--------------------------------|
|6---------------|--------------------------------|
|4---------------|--------------------------------|
|----------------|--------------------------------|

 |       |       |       |        |       |       |       |        
|--------------------------------|--------------------------------|
|0-------------------------------|--------------------------------|
|--------------------------------|--------------------------------|
|--------------------------------|--------------------------------|


Created with TablEdit http://www.tabledit.com/


............................................................
     
Добавлено: 13.10.2013
Другие материалы по этой песне:
  • Аккорды и текст

Страница создана 13.10.2013
http://primanota.ru/jaco-pastorius/walking-talking-chords.htm
Привет, Гость.
Предлагаем пройти революционный курс по гитаре.
Подарок от PrimaNota.Ru, забирай!