PrimaNota.ru - самый крупный в мире бесплатный архив песенных текстов, аккордов, табулатур и нот


Пасториус Жако - Invitation - бас-таба, видео

Регистрация Запомнить меня
Войти через:  Facebook Google Twitter Vk Yandex Mail.ru

Пасториус Жако - Invitation - бас-таба, видео

Печатать
Просмотров: 177
Авторы музыки: Bronislau Kaper
Авторы текста: Paul Francis Webster
Pastorius_Jaco-Invitation.btab

Basstab by Jan Bjorklund, Finland; 
jani_bjorklund@yahoo.se 
You are welcome to request for basstabs!
Bienvenidos a pedirme transcripciones para el bajo!
Fingering and positions as suggested by TablEdit. 

TablEdited by Jan Bjorklund
Tuning : E A D G 	Time Signature: 4/4

 |       |       |       |        |       |       |       |        
|--------------------------------|--------------------------------|
|--------------------------------|--------------------------------|
|3-----------3---------------3---|------------3---------------3---|
|------3---------------3---------|------3---------------3---------|

 |       |       |       |        |       |       |       |        
|--------------------------------|------------3-------------3-----|
|--------------------------------|------3---------------3-3---3-2-|
|----------------------------1---|--------------------------------|
|------3-----1---------1---------|--------------------------------|

 |       |       |       |        |       |       |       |        
|--------------------------------|--------------------------------|
|1-----------1---------------1---|------------1---------------1---|
|------1---------------1---------|------1---------------1-------1-|
|--------------------------------|--------------------------------|

 |       |       |       |        |       |       |       |        
|--------------------------------|--------------------------------|
|1-------------------------------|--------------------------------|
|------1---------------------4---|------------4-----------4-----4-|
|------------4---------4---------|------4---------------4-----4---|

 |       |       |       |        |       |       |       |        
|--------------------------------|------------4-----------4-----4-|
|--------------------------------|------4---------------------4---|
|4---------------------4-----2---|----------------------2---------|
|------4-----2-------------------|--------------------------------|

 |       |       |       |        |       |       |       |        
|------4-------------------------|----------------------2-------2-|
|------------4-3-2---------------|------2---------------------2---|
|2---------2---------------------|0-----------0-------------0-----|
|------------------------0-------|--------------------------------|

 |       |       |       |        |       |       |       |        
|--------------------------------|------------------------0-------|
|------2-----0---------0---------|------0---------------0-----2---|
|0---------0---------------------|--------------------------------|
|----------------------------3---|------------3-------------------|

 |       |       |       |        |       |       |       |        
|--------------------------------|--------------------------------|
|------------1---------1-----0---|------0-------------------------|
|--------------------------------|------------4---------4-----3---|
|------0-------------------------|--------------------------------|

 |       |       |       |        |       |       |       |        
|--------------------------------|--------------------------------|
|--------------------------------|----------------------------0---|
|------------3---------------3---|------------3-----------1-3---4-|
|------3---------------3---------|------3---------------3---------|

 |       |       |       |        |       |       |       |        
|--------------------------------|------------3---------3-4-3-----|
|--------------------------------|------3-------------3-------3-2-|
|3---------------------------1---|------------------1-------------|
|------3---2-1---------1---------|--------------------------------|

 |       |       |       |        |       |       |       |        
|--------------------------------|--------------------------------|
|1-----------1-------------------|------4-------------------------|
|------1---------------1-------1-|2-----------2-------------------|
|--------------------------------|----------------------2-----1---|

 |       |       |       |        |       |       |       |        
|--------------------------------|--------------------------------|
|----------------------0-----1---|------------0---------------0---|
|------2-----1-------------------|------4-----------------------4-|
|--------------------------------|----------------------3---------|

 |       |       |       |        |       |       |       |        
|--------------------------------|--------------------------------|
|--------------------------------|--------------------------------|
|3-----------3---------------3---|------------3---------------3---|
|------3---------------3---------|------3---------------3---------|

 |       |       |       |        |       |       |       |        
|--------------------------------|------------3-------------------|
|--------------------------------|------3---------------------1---|
|----------------------------1---|----------------------1---------|
|------3-----1---------1---------|--------------------------------|

 |       |       |       |        |       |       |       |        
|--------------------------------|--------------------------------|
|------------1---------------1---|------------1-----------1-1---0-|
|------1---------------1---------|------1---------------1-----4---|
|--------------------------------|--------------------------------|

 |       |       |       |        |       |       |       |        
|--------------------------------|--------------------------------|
|1-----1-------------------------|--------------------------------|
|----------------------------4---|------------4-----------4---2-3-|
|------------4---------4---------|------4---------------4---4-----|

 |       |       |       |        |       |       |       |        
|--------------------------------|--------------------------------|
|--------------------------------|------4-------------------------|
|4---------------------4---3-2---|------------2---------------2---|
|------4---3-2-------------------|----------------------2---------|

 |       |       |       |        |       |       |       |        
|--------------------------------|------------2---------------2---|
|--------------------------------|------2---------------2-------2-|
|----------------------2-----0---|--------------------------------|
|------2---1-0-------------------|--------------------------------|

 |       |       |       |        |       |       |       |        
|--------------------------------|------------0-------------------|
|------1-----0-------1-0---------|------0---------------0---1-2---|
|0-------------------------------|--------------------------------|
|----------------------------3---|--------------------------------|

 |       |       |       |        |       |       |       |        
|--------------------------------|------------------------0-------|
|------------1---------1-----0---|------------0-------------------|
|------1-------------------------|------0-------------------------|
|--------------------------------|----------------3---------------|

 |       |       |       |        |       |       |       |        
|--------------------------------|------------------------0-----0-|
|--------------------------------|--------------------------------|
|3-----------3---------------3---|------------3---------3---------|
|------3---------------3---------|------3-------------------------|

 |       |       |       |        |       |       |       |        
|--------------------------------|------------3-------------------|
|--------------------------------|------3---------------3-----3-2-|
|3-----3-----------------3---1---|------------------------1-------|
|--------2-----2-1-----1---------|--------------------------------|

 |       |       |       |        |       |       |       |        
|--------------------------------|--------------------------------|
|1-----------1---------------1---|--------------------------------|
|------1---------------1---------|2-----------2-------------------|
|--------------------------------|------2---------------2-----1---|

 |       |       |       |        |       |       |       |        
|--------------------------------|--------------------------------|
|----------------------2-----1---|------------0---------0---------|
|------2-----1-------------------|------4-------------------------|
|--------------------------------|------------------------3-------|

 |       |       |       |        |       |       |       |        
|--------------------------------|--------------------------------|
|--------------------------------|--------------------------------|
|3-----------3---------------3---|------------3---------------3---|
|------3---------------3---------|------3---------------3---------|

 |       |       |       |        |       |       |       |        
|--------------------------------|------------3-------------3-----|
|--------------------------------|------3---------------3-3---3-2-|
|----------------------------1---|--------------------------------|
|------3-----1---------1---------|--------------------------------|

 |       |       |       |        |       |       |       |        
|--------------------------------|--------------------------------|
|1-----------1---------------1---|------------1---------------1---|
|------1---------------1---------|------1---------------1-------1-|
|--------------------------------|--------------------------------|

 |       |       |       |        |       |       |       |        
|--------------------------------|--------------------------------|
|1-------------------------------|--------------------------------|
|------1---------------------4---|------------4-----------4-----4-|
|------------4---------4---------|------4---------------4-----4---|

 |       |       |       |        |       |       |       |        
|--------------------------------|------------4-----------4-----4-|
|--------------------------------|------4---------------------4---|
|4---------------------4-----2---|----------------------2---------|
|------4-----2-------------------|--------------------------------|

 |       |       |       |        |       |       |       |        
|------4-------------------------|----------------------2-------2-|
|------------4-3-2---------------|------2---------------------2---|
|2---------2---------------------|0-----------0-------------0-----|
|------------------------0-------|--------------------------------|

 |       |       |       |        |       |       |       |        
|--------------------------------|------------------------0-------|
|------2-----0---------0---------|------0---------------0-----2---|
|0---------0---------------------|--------------------------------|
|----------------------------3---|------------3-------------------|

 |       |       |       |        |       |       |       |        
|--------------------------------|--------------------------------|
|------------1---------1-----0---|------0-------------------------|
|--------------------------------|------------4---------4-----3---|
|------0-------------------------|--------------------------------|

 |       |       |       |        |       |       |       |        
|--------------------------------|--------------------------------|
|--------------------------------|----------------------------0---|
|------------3---------------3---|------------3-----------1-3---4-|
|------3---------------3---------|------3---------------3---------|

 |       |       |       |        |       |       |       |        
|--------------------------------|------------3---------3-4-3-----|
|--------------------------------|------3-------------3-------3-2-|
|3---------------------------1---|------------------1-------------|
|------3---2-1---------1---------|--------------------------------|

 |       |       |       |        |       |       |       |        
|--------------------------------|--------------------------------|
|1-----------1-------------------|------4-------------------------|
|------1---------------1-------1-|2-----------2-------------------|
|--------------------------------|----------------------2-----1---|

 |       |       |       |        |       |       |       |        
|--------------------------------|--------------------------------|
|----------------------0-----1---|------------0---------------0---|
|------2-----1-------------------|------4-----------------------4-|
|--------------------------------|----------------------3---------|

 |       |       |       |        |       |       |       |        
|--------------------------------|--------------------------------|
|--------------------------------|--------------------------------|
|3-----------3---------------3---|------------3---------------3---|
|------3---------------3---------|------3---------------3---------|

 |       |       |       |        |       |       |       |        
|--------------------------------|------------3-------------------|
|--------------------------------|------3---------------------1---|
|----------------------------1---|----------------------1---------|
|------3-----1---------1---------|--------------------------------|

 |       |       |       |        |       |       |       |        
|--------------------------------|--------------------------------|
|------------1---------------1---|------------1-----------1-1---0-|
|------1---------------1---------|------1---------------1-----4---|
|--------------------------------|--------------------------------|

 |       |       |       |        |       |       |       |        
|--------------------------------|--------------------------------|
|1-----1-------------------------|--------------------------------|
|----------------------------4---|------------4-----------4---2-3-|
|------------4---------4---------|------4---------------4---4-----|

 |       |       |       |        |       |       |       |        
|--------------------------------|--------------------------------|
|--------------------------------|------4-------------------------|
|4---------------------4---3-2---|------------2---------------2---|
|------4---3-2-------------------|----------------------2---------|

 |       |       |       |        |       |       |       |        
|--------------------------------|------------2---------------2---|
|--------------------------------|------2---------------2-------2-|
|----------------------2-----0---|--------------------------------|
|------2---1-0-------------------|--------------------------------|

 |       |       |       |        |       |       |       |        
|--------------------------------|------------0-------------------|
|------1-----0-------1-0---------|------0---------------0---1-2---|
|0-------------------------------|--------------------------------|
|----------------------------3---|--------------------------------|

 |       |       |       |        |       |       |       |        
|--------------------------------|------------------------0-------|
|------------1---------1-----0---|------------0-------------------|
|------1-------------------------|------0-------------------------|
|--------------------------------|----------------3---------------|

 |       |       |       |        |       |       |       |        
|--------------------------------|------------------------0-----0-|
|--------------------------------|--------------------------------|
|3-----------3---------------3---|------------3---------3---------|
|------3---------------3---------|------3-------------------------|

 |       |       |       |        |       |       |       |        
|--------------------------------|------------3-------------------|
|--------------------------------|------3---------------3-----3-2-|
|3-----3-----------------3---1---|------------------------1-------|
|--------2-----2-1-----1---------|--------------------------------|

 |       |       |       |        |       |       |       |        
|--------------------------------|--------------------------------|
|1-----------1---------------1---|--------------------------------|
|------1---------------1---------|2-----------2-------------------|
|--------------------------------|------2---------------2-----1---|

 |       |       |       |        |       |       |       |        
|--------------------------------|--------------------------------|
|----------------------2-----1---|------------0---------0---------|
|------2-----1-------------------|------4-------------------------|
|--------------------------------|------------------------3-------|

 |       |       |       |        |       |       |       |        
|--------------------------------|--------------------------------|
|--------------------------------|--------------------------------|
|3-----------3---------------3---|------------3---------------3---|
|------3---------------3---------|------3---------------3---------|

 |       |       |       |        |       |       |       |        
|--------------------------------|------------3-------------3-----|
|--------------------------------|------3---------------3-3---3-2-|
|----------------------------1---|--------------------------------|
|------3-----1---------1---------|--------------------------------|

 |       |       |       |        |       |       |       |        
|--------------------------------|--------------------------------|
|1-----------1---------------1---|------------1---------------1---|
|------1---------------1---------|------1---------------1-------1-|
|--------------------------------|--------------------------------|

 |       |       |       |        |       |       |       |        
|--------------------------------|--------------------------------|
|1-------------------------------|--------------------------------|
|------1---------------------4---|------------4-----------4-----4-|
|------------4---------4---------|------4---------------4-----4---|

 |       |       |       |        |       |       |       |        
|--------------------------------|------------4-----------4-----4-|
|--------------------------------|------4---------------------4---|
|4---------------------4-----2---|----------------------2---------|
|------4-----2-------------------|--------------------------------|

 |       |       |       |        |       |       |       |        
|------4-------------------------|----------------------2-------2-|
|------------4-3-2---------------|------2---------------------2---|
|2---------2---------------------|0-----------0-------------0-----|
|------------------------0-------|--------------------------------|

 |       |       |       |        |       |       |       |        
|--------------------------------|------------------------0-------|
|------2-----0---------0---------|------0---------------0-----2---|
|0---------0---------------------|--------------------------------|
|----------------------------3---|------------3-------------------|

 |       |       |       |        |       |       |       |        
|--------------------------------|--------------------------------|
|------------1---------1-----0---|------0-------------------------|
|--------------------------------|------------4---------4-----3---|
|------0-------------------------|--------------------------------|

 |       |       |       |        |       |       |       |        
|--------------------------------|--------------------------------|
|--------------------------------|----------------------------0---|
|------------3---------------3---|------------3-----------1-3---4-|
|------3---------------3---------|------3---------------3---------|

 |       |       |       |        |       |       |       |        
|--------------------------------|------------3---------3-4-3-----|
|--------------------------------|------3-------------3-------3-2-|
|3---------------------------1---|------------------1-------------|
|------3---2-1---------1---------|--------------------------------|

 |       |       |       |        |       |       |       |        
|--------------------------------|--------------------------------|
|1-----------1-------------------|------4-------------------------|
|------1---------------1-------1-|2-----------2-------------------|
|--------------------------------|----------------------2-----1---|

 |       |       |       |        |       |       |       |        
|--------------------------------|--------------------------------|
|----------------------0-----1---|------------0---------------0---|
|------2-----1-------------------|------4-----------------------4-|
|--------------------------------|----------------------3---------|

 |       |       |       |        |       |       |       |        
|--------------------------------|--------------------------------|
|--------------------------------|--------------------------------|
|3-----------3---------------3---|------------3---------------3---|
|------3---------------3---------|------3---------------3---------|

 |       |       |       |        |       |       |       |        
|--------------------------------|------------3-------------------|
|--------------------------------|------3---------------------1---|
|----------------------------1---|----------------------1---------|
|------3-----1---------1---------|--------------------------------|

 |       |       |       |        |       |       |       |        
|--------------------------------|--------------------------------|
|------------1---------------1---|------------1-----------1-1---0-|
|------1---------------1---------|------1---------------1-----4---|
|--------------------------------|--------------------------------|

 |       |       |       |        |       |       |       |        
|--------------------------------|--------------------------------|
|1-----1-------------------------|--------------------------------|
|----------------------------4---|------------4-----------4---2-3-|
|------------4---------4---------|------4---------------4---4-----|

 |       |       |       |        |       |       |       |        
|--------------------------------|--------------------------------|
|--------------------------------|------4-------------------------|
|4---------------------4---3-2---|------------2---------------2---|
|------4---3-2-------------------|----------------------2---------|

 |       |       |       |        |       |       |       |        
|--------------------------------|------------2---------------2---|
|--------------------------------|------2---------------2-------2-|
|----------------------2-----0---|--------------------------------|
|------2---1-0-------------------|--------------------------------|

 |       |       |       |        |       |       |       |        
|--------------------------------|------------0-------------------|
|------1-----0-------1-0---------|------0---------------0---1-2---|
|0-------------------------------|--------------------------------|
|----------------------------3---|--------------------------------|

 |       |       |       |        |       |       |       |        
|--------------------------------|------------------------0-------|
|------------1---------1-----0---|------------0-------------------|
|------1-------------------------|------0-------------------------|
|--------------------------------|----------------3---------------|

 |       |       |       |        |       |       |       |        
|--------------------------------|------------------------0-----0-|
|--------------------------------|--------------------------------|
|3-----------3---------------3---|------------3---------3---------|
|------3---------------3---------|------3-------------------------|

 |       |       |       |        |       |       |       |        
|--------------------------------|------------3-------------------|
|--------------------------------|------3---------------3-----3-2-|
|3-----3-----------------3---1---|------------------------1-------|
|--------2-----2-1-----1---------|--------------------------------|

 |       |       |       |        |       |       |       |        
|--------------------------------|--------------------------------|
|1-----------1---------------1---|--------------------------------|
|------1---------------1---------|2-----------2-------------------|
|--------------------------------|------2---------------2-----1---|

 |       |       |       |        |       |       |       |        
|--------------------------------|--------------------------------|
|----------------------2-----1---|--------------1-----------------|
|------2-----1-------------------|--------------------------------|
|--------------------------------|--------------------------------|

 
Created with TablEdit http://www.tabledit.com/

     
Добавлено: 19.06.2013
Другие материалы по этой песне:
  • Аккорды и текст

Страница создана 19.06.2013
http://primanota.ru/jaco-pastorius/invitation-chords.htm
Привет, Гость.
Предлагаем пройти революционный курс по гитаре.
Подарок от PrimaNota.Ru, забирай!