PrimaNota.ru - самый крупный в мире бесплатный архив песенных текстов, аккордов, табулатур и нот


Пасториус Жако - Three View Of A Secret - бас-таба, видео

Регистрация Запомнить меня
Войти через:  Facebook Google Twitter Vk Yandex Mail.ru

Пасториус Жако - Three View Of A Secret - бас-таба, видео

Печатать
Просмотров: 113
jaco_pastorius-Three View Of A Secret.btab

Basstab by Jan Bjorklund, Finland; 
jani_bjorklund@yahoo.se 
You are welcome to request for basstabs!
Bienvenidos a pedirme transcripciones para el bajo!
Fingering and positions as suggested by TablEdit. 

TablEdited by Jan Bjorklund
Tuning : E A D G 	Time Signature: 3/4

 |       |       |        |       |       |        
|------------------------|1-----------------------|
|2-----------------4-----|------------------------|
|------------------------|------------------------|
|------------------------|------------------------|

 |       |       |        |       |       |        
|2-----------------------|----------------7-------|
|------------------------|------------------------|
|------------------------|5-----------------------|
|------------------------|------------------------|

 |       |       |        |       |       |        
|------------------------|------------------------|
|------------------------|------------------4-----|
|4-----------------------|2-----------------------|
|------------------------|------------------------|

 |       |       |        |       |       |        
|------------------------|------------------------|
|------------------------|------------------------|
|0---------------0-------|------------------------|
|------------------4-----|2---------------0-------|

 |       |       |        |       |       |        
|------------------------|------------------------|
|2-----------------------|------------------------|
|------------------------|------------------------|
|------------------2-----|4-----------------------|

 |       |       |        |       |       |        
|------------------------|------------------------|
|------------------------|------------------------|
|4-----------------3-----|1-----------------------|
|------------------------|------------------------|

 |       |       |        |       |       |        
|------------------------|------------------------|
|------------------------|------------------------|
|------------------------|0-----------------------|
|2-----------------------|------------------------|

 |       |       |        |       |       |        
|------------------------|------------------------|
|------------------------|------------------------|
|3-----------------2-----|0-----------------------|
|------------------------|----------------2-------|

 |       |       |        |       |       |        
|------------------------|1-----------------------|
|------------------4-----|------------------------|
|------------------------|------------------------|
|------------------------|------------------------|

 |       |       |        |       |       |        
|2-----------------------|----------------7-------|
|------------------------|------------------------|
|------------------------|5-----------------------|
|------------------------|------------------------|

 |       |       |        |       |       |        
|------------------------|------------------------|
|------------------------|------------------4-----|
|4-----------------------|2-----------------------|
|------------------------|------------------------|

 |       |       |        |       |       |        
|------------------------|------------------------|
|------------------------|------------------------|
|0---------------0-------|------------------------|
|------------------4-----|2---------------0-------|

 |       |       |        |       |       |        
|------------------------|------------------------|
|2-----------------------|------------------------|
|------------------------|------------------------|
|------------------2-----|4-----------------------|

 |       |       |        |       |       |        
|------------------------|------------------------|
|------------------------|------------------------|
|4-----------------3-----|1-----------------------|
|------------------------|------------------------|

 |       |       |        |       |       |        
|------------------------|------------------------|
|------------------------|------------------------|
|------------------------|0-------0---------------|
|2-----------------------|------------------------|

 |       |       |        |       |       |        
|------------------------|------------------------|
|------------------------|------------------------|
|------------------------|------------------------|
|0-----------------------|------------------------|

 |       |       |        |       |       |        
|------------------------|1-----------------------|
|------------------------|------------------------|
|4-----------------------|------------------------|
|------------------------|------------------------|

 |       |       |        |       |       |        
|6-----------------------|------------------------|
|------------------------|6-----------------------|
|------------------------|------------------------|
|------------------------|------------------------|

 |       |       |        |       |       |        
|------------------------|1-----------------------|
|------------------------|------------------------|
|4-----------------------|------------------------|
|------------------------|------------------------|

 |       |       |        |       |       |        
|------------------------|----------------6-------|
|------------------------|------------------------|
|0-----------------------|------------------------|
|--4-----2---------------|7-----------------------|

 |       |       |        |       |       |        
|------------------------|1-----------------------|
|------------------------|------------------------|
|4-----------------------|------------------------|
|------------------------|----------------4-------|

 |       |       |        |       |       |        
|------------------------|------------------------|
|------------------------|6-----------------------|
|4-----------------------|------------------------|
|------------------------|------------------------|

 |       |       |        |       |       |        
|------------------------|------------------------|
|------------------------|------------------------|
|4-----------------------|2-----------------------|
|------------------------|------------------------|

 |       |       |        |       |       |        
|------------------------|6-----------------------|
|------------------9-----|------------------------|
|7-----------------------|------------------------|
|--7---------------------|------------------------|

 |       |       |        |       |       |        
|------------------------|9-----------------------|
|------------------------|------------------------|
|------------------------|------------------------|
|10----------------------|9-----------------------|

 |       |       |        |       |       |        
|8-----------------------|4-----------------------|
|------------------------|------------------------|
|------------------------|------------------------|
|7-----------------------|------------------------|

 |       |       |        |       |       |        
|14----------------------|1-----------------------|
|------------------------|------------------------|
|------------------------|------------------------|
|14----------------------|------------------------|

 |       |       |        |       |       |        
|2-----------------------|--------4---------------|
|------------------------|------------------------|
|------------------------|------------------------|
|------------------------|------------------------|

 |       |       |        |       |       |        
|------------------------|1-----------------------|
|2-----------------------|------------------------|
|------------------------|------------------------|
|------------------------|------------------------|

 |       |       |        |       |       |        
|------------------------|------------------------|
|------------------------|------------------------|
|--------4---------------|------------------------|
|------------------------|3-------------------0---|

 |       |       |        |       |       |        
|------------------------|------------------------|
|------------------------|------------------------|
|------------------------|------------------------|
|2-------2---------------|4-----------------------|

 |       |       |        |       |       |        
|------------------------|--4-----4---------------|
|------------------------|------------------------|
|0-----------------------|2-----------------------|
|------------------------|------------------------|

 |       |       |        |       |       |        
|13----------------------|11----------------------|
|------------------------|------------------------|
|------------------------|------------------------|
|------------------------|--------4---------------|

 |       |       |        |       |       |        
|9-----------------------|4-----------------------|
|------------------------|------------------------|
|------------------------|2-----------------------|
|9-----------------------|------------------------|

 |       |       |        |       |       |        
|------------------------|------------------------|
|------------------------|------------------------|
|------------------------|------------------------|
|2-----------------------|4-----------------------|

 |       |       |        |       |       |        
|----------------------6-|------------------------|
|------------------------|------------------------|
|0---------------------0-|------------------------|
|------------------------|------------------------|

 |       |       |        |       |       |        
|--6---------------------|6-----------------------|
|------------------------|------------------------|
|------------------------|------------------------|
|------------------------|------------------------|

 |       |       |        |       |       |        
|------------------------|------------------------|
|------------------------|------------------------|
|------------------------|4-----------------------|
|------------------------|------------------------|

 |       |       |        |       |       |        
|1-----------------------|------------------------|
|------------------------|------------------------|
|------------------------|2-----------------------|
|4-----------------------|------------------------|

 |       |       |        |       |       |        
|------------------1-----|------------------------|
|------------------------|------------------------|
|0-----------------------|4-----------------------|
|------------------4-----|------------------------|

 |       |       |        |       |       |        
|1-----------------------|------------------------|
|------------------------|------------------------|
|------------------------|2-----------------------|
|4-----------------------|------------------------|

 |       |       |        |       |       |        
|2-----------------1-----|------------------------|
|------------------------|------------------------|
|0-----------------------|4-----------------------|
|------------------4-----|------------------------|

 |       |       |        |       |       |        
|1-----------------------|------------------------|
|------------------------|------------------------|
|------------------------|2-----------------------|
|4-----------------------|------------------------|

 |       |       |        |       |       |        
|2-----------------1-----|------------------------|
|------------------------|------------------------|
|0-----------------------|4-----------------------|
|------------------4-----|------------------------|

 |       |       |        |       |       |        
|1-----------------------|------------------------|
|------------------------|------------------------|
|------------------------|2-----------------------|
|4-----------------------|------------------------|

 |       |       |        |       |       |        
|2-------------------1---|------------------------|
|------------------------|------------------------|
|0-----------------------|4-----------------------|
|------------------------|------------------------|

 |       |       |        |       |       |        
|1-----------------------|------------------------|
|------------------------|------------------------|
|------------------------|4-----------------------|
|------------------------|------------------------|

 |       |       |        |       |       |        
|1---------------1-------|------------------------|
|------------------------|------------------------|
|------------------------|4---------4-------------|
|------------------------|------------------------|

 |       |       |        |       |       |        
|1-----------------------|------------------------|
|------------------------|------------------------|
|------------------------|------------------------|
|------------------------|2-----------------2-----|

 |       |       |        |       |       |        
|----------------6-------|------------------------|
|------------------------|------------------------|
|------------------------|4-----------------------|
|7-----------------------|------------------------|

 |       |       |        |       |       |        
|1---------------1-------|------------------------|
|------------------------|------------------------|
|------------------------|4-----------------------|
|------------------------|------------------------|

 |       |       |        |       |       |        
|----------------6-------|------------------------|
|6-----------------------|------------------------|
|------------------------|4-----------------------|
|------------------------|------------------------|

 |       |       |        |       |       |        
|------------------------|------------------------|
|------------------------|2-----------------------|
|2-----------------------|--2---------------------|
|------------------------|------------------------|

 |       |       |        |       |       |        
|6-----------------------|11----------------------|
|------------------------|------------------------|
|------------------------|----------------12------|
|------------------------|--------10--------------|

 |       |       |        |       |       |        
|--------6---------------|----------------4-------|
|----------------6-------|4-----------------------|
|4-----------------------|--------2---------------|
|------------------------|------------------------|

 |       |       |        |       |       |        
|------------------------|------------------6-----|
|2-----------------------|4-----------------------|
|------------------------|------------------------|
|--------0---------------|------------------------|

 |       |       |        |       |       |        
|1-----------------4-----|2-----------------------|
|------------------------|------------------------|
|------------------------|------------------------|
|------------------------|------------------------|

 |       |       |        |       |       |        
|4-----------------------|------------------------|
|------------------------|2-----------------------|
|--2---------------------|------------------------|
|------------------------|------------------------|

 |       |       |        |       |       |        
|1-----------------------|--------6---------------|
|------------------------|------------------------|
|------------------------|4-----------------------|
|------------------------|------------------------|

 |       |       |        |       |       |        
|0-----------------------|------------------------|
|------------------------|4-----------------------|
|------------------------|------------------------|
|------------------------|------------------------|

 |       |       |        |       |       |        
|1-----------------4-----|2-----------------------|
|------------------------|------------------------|
|------------------------|------------------------|
|------------------------|------------------------|

 |       |       |        |       |       |        
|------------------------|------------------------|
|------------------4-----|2-----------------------|
|--------2---------------|------------------------|
|------------------------|------------------------|

 |       |       |        |       |       |        
|1-----------------------|6-----------------------|
|------------------------|------------------------|
|------------------------|------------------------|
|------------------------|------------------------|

 |       |       |        |       |       |        
|------------------------|------------------------|
|------------------------|------------------------|
|------------------------|------------------------|
|--------3-----------3---|2-----------------------|

 |       |       |        |       |       |        
|------------------------|------------------------|
|------------------------|------------------------|
|------------------------|0-----------------------|
|4-----------------------|------------------------|

 |       |       |        |       |       |        
|------------------------|------------------------|
|------------------------|2-----------------------|
|2-----------------------|------------------------|
|------------------------|------------------------|

 |       |       |        |       |       |        
|1-----------------------|6-----------------------|
|------------------------|------------------------|
|------------------------|------------------------|
|------------------------|------------------------|

 |       |       |        |       |       |        
|0-----------------------|------------------------|
|------------------------|4-----------------------|
|------------------------|------------------------|
|------------------------|------------------------|

 |       |       |        |       |       |        
|1-----------------------|2-----------------------|
|------------------------|------------------------|
|------------------------|------------------------|
|------------------------|------------------------|

 |       |       |        |       |       |        
|2-----------------------|------------------------|
|------------------------|2---------------2-------|
|--------2---------------|------------------------|
|------------------------|--------0---0-----------|

 |       |       |        |       |       |        
|1-------1---------------|--------6-------6-------|
|------------------------|------------------------|
|------------------------|4-----------------------|
|------------------------|------------------------|

 |       |       |        |       |       |        
|------------------------|------------------------|
|------------------------|----------------4-------|
|------------------------|------------------------|
|--------3---------------|2-----------------------|

 |       |       |        |       |       |        
|------------------------|------------------------|
|------------------------|------------------------|
|------------------------|0-----------------------|
|4-----------------------|------------------------|

 |       |       |        |       |       |        
|------------------------|------------------------|
|------------------------|----------------0-------|
|------------------------|------------------------|
|------------------------|3-------3---------------|

 |       |       |        |       |       |        
|----------------4-------|------------------------|
|--------4---------------|2---------------2-------|
|2-----------------------|------------------------|
|------------------------|--------0-----------0---|

 |       |       |        |       |       |        
|------------------------|--------2-------2-------|
|------------------------|------------------------|
|1-------1-------1-------|0-----------------------|
|------------------------|------------------------|

 |       |       |        |       |       |        
|--------4---------------|------------------------|
|------------------------|------------------------|
|2---------------2-------|3-------3-------3-------|
|------------------------|------------------------|

 |       |       |        |       |       |        
|----------------2-------|0-------0-------0-------|
|0-------0---------------|------------------------|
|------------------------|------------------------|
|------------------------|------------------------|

 |       |       |        |       |       |        
|----------------4-------|------------------------|
|------------------------|2---------------2-------|
|2-------2---------------|------------------------|
|------------------------|--------0-----------0---|

 |       |       |        |       |       |        
|------------------------|------------------------|
|------------------------|------------------------|
|1-------1-------1-------|0-------0-------0-------|
|------------------------|------------------------|

 |       |       |        |       |       |        
|--4-----4---------------|------------------------|
|----------------4-------|------------------------|
|2-------------------2---|3-------3-------3-------|
|------------------------|------------------------|

 |       |       |        |       |       |        
|------------------2-----|0-----------------------|
|0-0-----0---------------|----------------0-------|
|----------------0-------|------------------------|
|------------------------|--------3---------------|

 |       |       |        |       |       |        
|----------------4-------|------------------------|
|--------4---------------|2---------------2-------|
|2-----------------------|------------------------|
|------------------------|--------0-----------0---|

 |       |       |        |       |       |        
|------------------------|17----------------16----|
|------------------------|------------------------|
|1-------1-------1-------|0---------------0-------|
|------------------------|--------17--------------|

 |       |       |        |       |       |        
|----------------1615----|------------------------|
|19----------------------|17----------------------|
|2---------------2-------|3-------3-------3-------|
|--------19--------------|------------------------|

 |       |       |        |       |       |        
|--7-----7---------------|--------11--------------|
|----------------7-------|--12------------0-------|
|5---------------5-------|------------------------|
|------------------------|15----------------------|

 |       |       |        |       |       |        
|------------------------|------------------------|
|------------------------|2-------2-------2-------|
|2-------2-------2-------|------------------------|
|------------------------|------------------------|

 |       |       |        |       |       |        
|------------------------|------------------------|
|------------------------|------------------------|
|1-------1-------1-------|0---------------0-------|
|------------------------|------------------------|

 |       |       |        |       |       |        
|------------------------|------------------------|
|----------------4-------|------------------------|
|2-------------------2---|------------------------|
|------------------------|8-----------------------|

 |       |       |        |       |       |        
|------------------------|------------------------|
|0-------0---------------|2-----------------4-----|
|------------------------|------------------------|
|------------------------|------------------------|

 |       |       |        |       |       |        
|1-----------------------|2-----------------------|
|------------------------|------------------------|
|------------------------|------------------------|
|------------------------|------------------------|

 |       |       |        |       |       |        
|----------------7-------|------------------------|
|------------------------|------------------------|
|5-----------------------|4-----------------------|
|------------------------|------------------------|

 |       |       |        |       |       |        
|------------------------|------------------------|
|------------------4-----|------------------------|
|2-----------------------|0---------------0-------|
|------------------------|------------------4-----|

 |       |       |        |       |       |        
|------------------------|------------------------|
|------------------------|2-----------------------|
|------------------------|------------------------|
|2---------------0-------|------------------2-----|

 |       |       |        |       |       |        
|------------------------|------------------------|
|------------------------|------------------------|
|------------------------|4-----------------3-----|
|4-----------------------|------------------------|

 |       |       |        |       |       |        
|------------------------|------------------------|
|------------------------|------------------------|
|1-----------------------|------------------------|
|------------------------|2-----------------------|

 |       |       |        |       |       |        
|------------------------|------------------------|
|------------------------|2-----------------------|
|0-----------------------|------------------------|
|------------------------|------------------------|

 |       |       |        |       |       |        
|------------------------|------------------------|
|------------------------|------------------------|
|4-----------------------|3-------3-------3-------|
|------------------------|------------------------|

 |       |       |        |       |       |        
|------------------------|------------------------|
|------------------------|2---------------2-------|
|0-------0-------0---0---|------------------------|
|------------------------|--------0---------------|

 |       |       |        |       |       |        
|----------------1-------|------------------------|
|------------------------|------------------------|
|4-------4---------------|3-------3-------3-------|
|------------------------|------------------------|

 |       |       |        |       |       |        
|------------------------|------------------------|
|------------------------|2---------------2-------|
|0-----------------------|------------------------|
|------------------------|--------0---------------|

 |       |       |        |       |       |        
|----------------1-------|----------------0-------|
|------------------------|------------------------|
|4-------4---4-------0---|3-------3---------------|
|------------------------|------------------------|

 |       |       |        |       |       |        
|------------------------|------------------------|
|------------------------|2---------------2-------|
|0-------0-------0-------|------------------------|
|------------------------|--------0---------------|

 |       |       |        |       |       |        
|------------------------|------------------------|
|------------------------|------------------------|
|4-------4-------4-------|3-------3---------------|
|------------------------|------------------------|

 |       |       |        |       |       |        
|------------------------|------------------------|
|------------------------|2-----------------------|
|0-------0-------0-------|------------------------|
|------------------------|------------------------|

 |       |       |        |       |       |        
|------------------------|------------------------|
|------------------------|------------------------|
|4-----------------------|3-------3-------3-------|
|------------------------|------------------------|

 |       |       |        |       |       |        
|------------------------|------------------------|
|------------------------|2---------------2-------|
|0-------0-------0---0---|------------------------|
|------------------------|--------0---------------|

 |       |       |        |       |       |        
|----------------1-------|------------------------|
|------------------------|------------------------|
|4-------4---------------|3-------3-------3-------|
|------------------------|------------------------|

 |       |       |        |       |       |        
|------------------------|------------------------|
|------------------------|2---------------2-------|
|0-----------------------|------------------------|
|------------------------|--------0---------------|

 |       |       |        |       |       |        
|----------------1-------|----------------0-------|
|------------------------|------------------------|
|4-------4---4-------0---|3-------3---------------|
|------------------------|------------------------|

 |       |       |        |       |       |        
|------------------------|------------------------|
|------------------------|2---------------2-------|
|0-------0-------0-------|------------------------|
|------------------------|--------0---------------|

 |       |       |        |       |       |        
|------------------------|------------------------|
|------------------------|------------------------|
|4-------4-------4-------|3-------3---------------|
|------------------------|------------------------|

 |       |       |        |       |       |        
|------------------------|------------------------|
|------------------------|2-----------------------|
|0-------0-------0-------|------------------------|
|------------------------|------------------------|

 |       |       |        |       |       |        
|------------------------|------------------------|
|------------------------|------------------------|
|4-----------------------|3-------3-------3-------|
|------------------------|------------------------|

 |       |       |        |       |       |        
|------------------------|------------------------|
|------------------------|2---------------2-------|
|0-------0-------0---0---|------------------------|
|------------------------|--------0---------------|

 |       |       |        |       |       |        
|----------------1-------|------------------------|
|------------------------|------------------------|
|4-------4---------------|3-------3-------3-------|
|------------------------|------------------------|

 |       |       |        |       |       |        
|------------------------|------------------------|
|------------------------|2---------------2-------|
|0-----------------------|------------------------|
|------------------------|--------0---------------|

 |       |       |        |       |       |        
|----------------1-------|----------------0-------|
|------------------------|------------------------|
|4-------4---4-------0---|3-------3---------------|
|------------------------|------------------------|

 |       |       |        |       |       |        
|------------------------|------------------------|
|------------------------|2---------------2-------|
|0-------0-------0-------|------------------------|
|------------------------|--------0---------------|

 |       |       |        |       |       |        
|------------------------|------------------------|
|------------------------|------------------------|
|4-------4-------4-------|3-------3---------------|
|------------------------|------------------------|

 |       |       |        |       |       |        
|------------------------|------------------------|
|------------------------|2-----------------------|
|0-------0-------0-------|------------------------|
|------------------------|------------------------|

 |       |       |        |       |       |        
|------------------------|------------------------|
|------------------------|------------------------|
|4-----------------------|3-------3-------3-------|
|------------------------|------------------------|

 |       |       |        |       |       |        
|------------------------|------------------------|
|------------------------|2---------------2-------|
|0-------0-------0---0---|------------------------|
|------------------------|--------0---------------|

 |       |       |        |       |       |        
|----------------1-------|------------------------|
|------------------------|------------------------|
|4-------4---------------|3-------3-------3-------|
|------------------------|------------------------|

 |       |       |        |       |       |        
|------------------------|------------------------|
|------------------------|2---------------2-------|
|0-----------------------|------------------------|
|------------------------|--------0---------------|

 |       |       |        |       |       |        
|----------------1-------|----------------0-------|
|------------------------|------------------------|
|4-------4---4-------0---|3-------3---------------|
|------------------------|------------------------|

 |       |       |        |       |       |        
|------------------------|------------------------|
|------------------------|2---------------2-------|
|0-------0-------0-------|------------------------|
|------------------------|--------0---------------|

 |       |       |        |       |       |        
|------------------------|------------------------|
|------------------------|------------------------|
|4-------4-------4-------|3-------3---------------|
|------------------------|------------------------|

 |       |       |        |       |       |        
|------------------------|------------------------|
|------------------------|2-----------------------|
|0-------0-------0-------|------------------------|
|------------------------|------------------------|

 |       |       |        |       |       |        
|------------------------|------------------------|
|------------------------|------------------------|
|4-----------------------|3-------3-------3-------|
|------------------------|------------------------|

 |       |       |        |       |       |        
|------------------------|------------------------|
|------------------------|2---------------2-------|
|0-------0-------0---0---|------------------------|
|------------------------|--------0---------------|

 |       |       |        |       |       |        
|----------------1-------|------------------------|
|------------------------|------------------------|
|4-------4---------------|3-------3-------3-------|
|------------------------|------------------------|

 |       |       |        |       |       |        
|------------------------|------------------------|
|------------------------|------------------------|
|0-----------------------|------------------------|
|------------------------|------------------------|




Created with TablEdit http://www.tabledit.com/


............................................................
     
Добавлено: 22.07.2013
Другие материалы по этой песне:
  • Аккорды и текст

Страница создана 22.07.2013
http://primanota.ru/jaco-pastorius/three-view-of-a-secret-chords.htm
Привет, Гость.
Предлагаем пройти революционный курс по гитаре.
Подарок от PrimaNota.Ru, забирай!