PrimaNota.ru - самый крупный в мире бесплатный архив песенных текстов, аккордов, табулатур и нот


Пасториус Жако - Continuum - бас-таба, видео

Регистрация Запомнить меня
Войти через:  Facebook Google Twitter Vk Yandex Mail.ru

Пасториус Жако - Continuum - бас-таба, видео

Печатать
Просмотров: 372
Авторы музыки: Jaco Pastorius

          I'm surprised there isn't more jaco here! c'mon bass players, help out a little...
                   Jaco
                       continuum                H:harmonic


G:-------9-----]--------------]-------------]------------------]------------]
D:-------9-----]-------9-11---]-------------]-------9--11/13---]---6--------]
A:-------9-----]--11/9--------]---6---------]--11/9------------]-4----------]
E:--0--------0-]------------0-]-----------0-]----------------0-]---------0--]
         ^
         H

G:-----------9/11--9-]----------]---------------]-------9--]----------------]
D:------9-11---------]-11-------]---------------]-------9--]------9-11------]
A:-11/9--------------]----0-----]-----------4-6-]-7-----9--]-11/9-----------]
E:-------------------]----------]---------------]----0-----]------------0---]
                                  1  2   3   4          ^
                                                        H 

G:--------9--]----------------]-------]-----------9/11-9-8-9-]11/13---------]
D:--------9--]------9-11/13---]---6---]------9-11------------]--------------]
A:-6------9--]-11/9-----------]-4-----]-11/9-----------------]--------------]
E:----0------]--------------0-]-----0-]----------------------]--------------]
          ^
          H

G:15-13-12---]-9-10-11--13-14-16---]-----------]-11/13-11----11--------]
D:-----------]---------------------]-----------]----------14----11-----]
A:-----------]---------------------]-----------]-------------------0---]
E:-----------]-------------------0-]-----------]-----------------------]

G:-11/13-11-------11/12-11-]--------------]------------------9--------------]
D:----------10-------------]-6-7-9--7/6/4-]-4-0-4-5-4/5------9--------------]
A:--------------0----------]--------------]------------------9--------------]
E:-------------------------]--------------]--------------0------------------]
                                                             ^
                                                             H

                 repeat continuously...........

                                            anonamoose ( i don't needs no credit...)
Добавлено: 16.05.2012
Другие материалы по этой песне:

Страница создана 22.03.2012
http://primanota.ru/jaco-pastorius/continuum-chords.htm
Привет, Гость.
Предлагаем пройти революционный курс по гитаре.
Подарок от PrimaNota.Ru, забирай!