PrimaNota.ru - самый крупный в мире бесплатный архив песенных текстов, аккордов, табулатур и нот


Iron Butterfly - Real Fright - текст песни, таба, видео

Регистрация Запомнить меня
Войти через:  Facebook Google Twitter Vk Yandex Mail.ru

Iron Butterfly - Real Fright - текст песни, таба, видео

Печатать
Просмотров: 89
Iron Butterfly-Real Fright
Tabbed By:John-Lennon
Tuning:Standard
Intro:
E------------|
B-9-7-5-2-3-2|
G-9-7-5-2-3-2|
D-9-7-5-2-3-2|
A-7-5-3---1--|
E------------|

Riff:you do this riff prity slow have a list to get the feel
E---------------------------|
B---------------------------|
G---------------------------|
D-----------55-66-55--------| Play 6x
A---66-55-88--------88-66-55| on the 6th time do this
E-88------------------------|

E-----------------------------|
B-----------------------------|
G-----------------------------|
D-----------55-66-55----------|
A---66-55-88--------88-66-5TR6|
E-88--------------------------|

now during the verse the riff's twice as fast have a lissen to the recording to get the 
feel then after the verse go back to the chords and it starts all over again. Really 
good song off the ball album deffinatley have a list to the track to get the feel and have fun!
Добавлено: 13.08.2013
Другие материалы по этой песне:
  • Аккорды и текст

Страница создана 05.05.2012
http://primanota.ru/iron-butterfly/real-fright-chords.htm
Привет, Гость.
Предлагаем пройти революционный курс по гитаре.
Подарок от PrimaNota.Ru, забирай!