PrimaNota.ru - самый крупный в мире бесплатный архив песенных текстов, аккордов, табулатур и нот


Iron Butterfly - Get Out My Life Woman - таба, видео

Регистрация Запомнить меня
Войти через:  Facebook Google Twitter Vk Yandex Mail.ru

Iron Butterfly - Get Out My Life Woman - таба, видео

Печатать
Просмотров: 106
Уроки эстрадного вокала в Санкт-Петербурге
Iron Butterfly-Get Out My Life Women
Tabbed By:John-Lennon
Tuning:Standard
Intro:
E------|
B-5-5-5|
G-5-5-5|
D-5-5-5|
A-3-3-3|
E------|

Riff:
E----------|
B----------|
G----------|
D----3-5-3-|
A-5-5-5---5| Play 2x
E----------|

Verse+Fills:
E-----------------------------------------|
B-5---------5-5-5-3-5-5-----------------5-|
G-5-5b-3-3r-5-5-5-3-5-5-3h53h53h53h53h5-5-|
D-5-----5---5-5-----5-5-----------------5-|
A-3---------3-3-----3-3-----------------3-|
E-----------------------------------------|
After the second fill return back to the riff

E--------------------------|
B-5b--------------------5-5|
G-5b-3h53h53h53h53h53-3-5-5|
D--------------------5--5-5|
A-----------------------3-3|
E--------------------------|

Outro:
E----------|----------|-----------------|
B----------|----3-5-3-|-----------------|
G----------|----3-5-3-|-----------------|
D----3-5-3-|-5-5-5---5|------12--14-12--|
A-5-5-5---5|----------|-14-14--14-----14|
E----------|----------|-----------------|
  play 2x     Play 2x       Play 2x

Then return back to the riff to finish
Good song by Iron Butterfly off the Heavy Album. have a listen to the song to get the 
feel and have Fun!
Добавлено: 24.07.2013
Другие материалы по этой песне:

Страница создана 24.07.2013
http://primanota.ru/iron-butterfly/get-out-my-life-woman-chords.htm
Привет, Гость.
Предлагаем пройти революционный курс по гитаре.
Подарок от PrimaNota.Ru, забирай!