PrimaNota.ru - самый крупный в мире бесплатный архив песенных текстов, аккордов, табулатур и нот


Iron Butterfly - Possession - текст песни, таба, видео

Регистрация Запомнить меня
Войти через:  Facebook Google Twitter Vk Yandex Mail.ru

Iron Butterfly - Possession - текст песни, таба, видео

Печатать
Просмотров: 183
Уроки эстрадного вокала в Санкт-Петербурге
Авторы: Doug Ingle

Iron Butterfly-Possession
Tabbed By:John-Lennon
Tuning:Standard
Riff:
E------------|
B------------|
G------------|
D-5-5-5-3-5-3|
A------------| Play 3x
E------------|

Fill:       Riff:        Fill:
E-----------|------------|----------------------|
B-----------|------------|-12-10-9-9-7-6-7-5-4/9|
G----3-5b-3r|------------|----------------------|
D-4/5-------|-5-5-5-3-5-3|----------------------|
A-----------|------------|----------------------|
E-----------|------------|----------------------|

Verse:
E------------|
B-7-7-7-5-7-5|
G-7-7-7-5-7-5|
D-7-7-7-5-7-5|
A-5-5-5-3-5-3| play 8x
E------------|

Solo:
E------------------------------|
B------------------------------|
G-3-5/7-9-7-5-7-5-3-5-2-3-7-5-7|
D------------------------------|
A------------------------------|
E------------------------------|

The return back to the verse really good Iron Butterfly Song listen to the song to get 
the feel and have Fun!
Добавлено: 06.11.2013
Другие материалы по этой песне:

Страница создана 05.03.2012
http://primanota.ru/iron-butterfly/possession-chords.htm
Привет, Гость.
Предлагаем пройти революционный курс по гитаре.
Подарок от PrimaNota.Ru, забирай!