PrimaNota.ru - самый крупный в мире бесплатный архив песенных текстов, аккордов, табулатур и нот


Iron Butterfly - To Be Alone - таба, видео

Регистрация Запомнить меня
Войти через:  Facebook Google Twitter Vk Yandex Mail.ru

Iron Butterfly - To Be Alone - таба, видео

Печатать
Просмотров: 93
Iron Butterfly-To Be Alone
Tabbed By:John-Lennon
Tuning:Standard
Intro:
E------------|
B---------4-4|
G-8-8-4-4-5-5|
D-8-8-4-4-5-5|
A-6-6-6-6-3-3| Play 6x
E------------|

E--------------|
B--------------|
G--------------|
D----5---5---5-|
A-3-6-3-6-3-6-6|
E--------------|
Riff:
E---------0|
B---------1|
G----------|
D----3-----|
A-3-6-6-3--| Play 5x
E----------|
Then go back to the intro play 4x then go back to the riff improvise the solo

Outro:
E----------|
B-------4-4|
G-8-8-6-5-5|
D-8-8-6-5-5|
A-6-6-4-3-3| Play 4x
E----------|

E--------------|
B--------------|
G--------------|
D----5---5---5-|
A-3-6-3-6-3-6-6|
E--------------|

E----------------------------------|
B----------------------------------|
G---------------------------------5|
D---------------------------------5|
A-6-5-4-3-6-5-4-3-6-5-4-3-6-5-4-3-3|
E----------------------------------|
Parm mute until the finel chord

Really really good Iron Butterfly song off the Ball album. Have a listen to the song to 
get the feel and have Fun!
Добавлено: 07.12.2013
Другие материалы по этой песне:
  • Аккорды и текст

Страница создана 07.12.2013
http://primanota.ru/iron-butterfly/to-be-alone-chords.htm
Привет, Гость.
Предлагаем пройти революционный курс по гитаре.
Подарок от PrimaNota.Ru, забирай!