PrimaNota.ru - самый крупный в мире бесплатный архив песенных текстов, аккордов, табулатур и нот


Insomnium - Equivalence - бас-таба, видео

Регистрация Запомнить меня
Войти через:  Facebook Google Twitter Vk Yandex Mail.ru

Insomnium - Equivalence - бас-таба, видео

Печатать
Просмотров: 276
Уроки эстрадного вокала в Санкт-Петербурге
Insomnium - Equivalence
it's 99% correct

**Bass Intro**
F:-------------------|x8
C:-------------------|
G:-2--2--------------|
D:-------------------|

F:-----------------------------| x1
C:-----------------------------|
G:-2--2-2--2-2--2-2--2---------|
D:---------------------0-2-5-2-|

F:-----------------------------| x6
C:-----------------------------|
G:-2--2-2--0-2--2-2--2---------|
D:---------------------0-2-5-2-|

F:-----------------------------| x1
C:-------------------------7---|
G:-2--2-2--2-2--2-2--2-7-9-----|
D:-----------------------------|

**Bass Solo**
F:-------------------------11-------|x1
C:-9-9-9-9-9---9-9-9-9-9--------9---|
G:-----------9-----------9----------|
D:----------------------------------|

F:-------------------------------------------14---|x1
C:-12-12-12-12-12----12-12-12-12-12----12-14------|
G:----------------12----------------12------------|
D:------------------------------------------------|

F:-------------------------------------16---14---|x1
C:-14-14-14-14-14----14-14-14-14-14-14-----------|
G:----------------14-----------------------------|
D:-----------------------------------------------|

F:-12-12-12-12-12----12-12-12-12-12----12---12---|x1
C:----------------12----------------12-----------|
G:-----------------------------------------------|
D:-----------------------------------------------|

F:-------------------------11-------|x1
C:-9-9-9-9-9---9-9-9-9-9--------9---|
G:-----------9-----------9----------|
D:----------------------------------|

F:------------------------------------------------|x1
C:-14-14-14-14-14----14-14-14-14-14----14---14\12-|
G:----------------14----------------14------------|
D:------------------------------------------------|
                                         (legato slide)

F:-------------------------------------16---14---|x1
C:-14-14-14-14-14----14-14-14-14-14-14-----------|
G:----------------14-----------------------------|
D:-----------------------------------------------|

F:-12-12-12-12-12----12-12-12-12-12----12---14---|x1
C:----------------12----------------12-----------|
G:-----------------------------------------------|
D:-----------------------------------------------|

**Heavy part**
F:---------------------------| x1
C:---------------------------|
G:-2-2--2-2--2-2--2-2--2--2--|
D:---------------------------|

F:---------------------------| x1
C:---------------------------|
G:-5-5--5-5--5-5--5-5--------|
D:---------------------2/5---|
                     (legato slide)

F:---------------------------| x1
C:---------------------------|
G:---------------------------|
D:-0-0--0-0--0-0--0-0--7\5---|
                     (legato slide)

F:---------------------------| x1
C:---------------------------|
G:---------------------------|
D:-3-3--3-3--3-3--3-3--3--3--|

F:---------------------------| x1
C:---------------------------|
G:-2-2--2-2--2-2--2-2--2--2--|
D:---------------------------|

F:---------------------------| x1
C:---------------------------|
G:-5-5--5-5--5-5--5-5--------|
D:---------------------2/5---|
                     (legato slide)

F:---------------------------| x1
C:---------------------9\7---|
G:-7-7--7-7--7-7--7-7--------|
D:---------------------------|
                     (legato slide)

F:------------------------------|x1
C:-5-5--5-5--5-5--7-7-7-7-7-7-7-|
G:------------------------------|
D:------------------------------|

**Vocal enters**
F:---------------------------------|x1
C:---------------------------------|
G:-2-2-2-2-2-2-2-2-2-2-2-2-2-2-2---|
D:---------------------------------|

F:-----------------------------------|x1
C:-----------------------------------|
G:-5-5-5-5-5-5-5-5-5-5-5-5-5---------|
D:-----------------------------2/5---|
                        (legato slide)

F:-----------------------------------|x1
C:-----------------------------------|
G:-----------------------------------|
D:-0-0-0-0-0-0-0-0-0-0-0-0-0---7/5---|
                        (legato slide)

F:---------------------------------| x1
C:---------------------------------|
G:-3-3-3-3-3-3-3-3-3-3-3-3-3-3-3-3-|
D:---------------------------------|

F:---------------------------------|x1
C:---------------------------------|
G:-2-2-2-2-2-2-2-2-2-2-2-2-2-2-2---|
D:---------------------------------|

F:---------------------------------|x1
C:-----------------------------7---|
G:-5-5-5-5-5-5-5-5-5-5-5---7-------|
D:---------------------------------|

F:-----------------------------------|x1
C:-----------------------------9\7---|
G:-7-7-7-7-7-7-7-7-7-7-7-7-7---------|
D:-----------------------------------|
                        (legato slide)

F:---------------------------------| x1
C:-5-5-5-5-5-5-5-5-5-7-7-7-7-7-7-7-|
G:---------------------------------|
D:---------------------------------|

**Vocal Enter** x1 and C:-9---------------

that it :)
Добавлено: 12.07.2012
Другие материалы по этой песне:

Страница создана 01.05.2012
http://primanota.ru/insomnium/equivalence-chords.htm
Привет, Гость.
Предлагаем пройти революционный курс по гитаре.
Подарок от PrimaNota.Ru, забирай!