PrimaNota.ru - самый крупный в мире бесплатный архив песенных текстов, аккордов, табулатур и нот


Insomnium - In The Groves Of Death - текст песни, таба, бас-таба, видео

Регистрация Запомнить меня
Войти через:  Facebook Google Twitter Vk Yandex Mail.ru

Insomnium - In The Groves Of Death - текст песни, таба, бас-таба, видео

Печатать
Просмотров: 323
Авторы музыки: Niilo Sevänen, Ville Friman

                             Insomnium - In the Groves of Death (intro)

Tabbed by: slayercherry
Email: kittiepurr@live.se

Tuning: D

e|---------7------------7-------------7-------------7------|
B|--10-----------10--------10-----10-----10-----10-----10--|
G|------9-----9------9---------9-------------9-------------|
D|---------------------------------------------------------|
A|---------------------------------------------------------|
E|---------------------------------------------------------|

e|---------7-----------7-----------7-----------7-----------|
B|--8------------8--------8-----8-----8-----8-----10-------|
G|------9-----9-----9--------9-----------9-----------------|
D|---------------------------------------------------------|
A|---------------------------------------------------------|
E|---------------------------------------------------------|

e|---------7-----------7-----------7-----------7-----------|
B|--7------------7--------7-----7-----7-----7-----7--------|
G|------9-----9-----9--------9-----------9-----------------|
D|---------------------------------------------------------|
A|---------------------------------------------------------|
E|---------------------------------------------------------|

e|---------7-----------7-----------7-----------7-----------|
B|--7------------7--------7-----7-----7-----7-----7--------|
G|------7-----7-----7--------7-----------7-----------------|
D|---------------------------------------------------------|
A|---------------------------------------------------------|
E|---------------------------------------------------------|


This is only how to play the acoustic intro.
This is my first tab so don't go all ape shit now.
Добавлено: 26.05.2012
Другие материалы по этой песне:

Страница создана 05.05.2012
http://primanota.ru/insomnium/in-the-groves-of-death-chords.htm
Привет, Гость.
Предлагаем пройти революционный курс по гитаре.
Подарок от PrimaNota.Ru, забирай!