PrimaNota.ru - самый крупный в мире бесплатный архив песенных текстов, аккордов, табулатур и нот


Incubus - Out From Under - аккорды и текст, таба, бас-таба, видео

Регистрация Запомнить меня
Войти через:  Facebook Google Twitter Vk Yandex Mail.ru

Incubus - Out From Under - аккорды и текст, таба, бас-таба, видео

Печатать
Просмотров: 146
Авторы музыки: Brandon Boyd, Mike Einziger, José Pasillas, Alex Katunich, Chris Kilmore

Out From Under
Incubus
BAND: Incubus
SONG: Out From Under
TABLATURE: Guitar
TABBED BY: Jeff Maceyko (imainvalid@aol.com)


    Intro
|--|-------------------------------------------------------------------
|--|-------------------------------------------------------------------
|--|-------------------------------------------------------------------
|--|-2-2-2-5-5-5-5-5-2-2-2-5-5-5-5-5--5-5-x-5-5------------------------
|--|-2-2-2-3-3-3-3-3-2-2-2-3-3-3-3-3--3-3-x-3-3-x-5-5-x-5-5------------
|--|-0-0-0-----------0-0-0----------------x-----x-3-3-x-3-3------------


-----------------------------------------------------------------------
-----------------------------------------------------------------------
-----------------------------------------------------------------------
-2-2-2-5-5-5-5-5-2-2-2-5-5-5-5-5-4444-2222-----------------------------
-2-2-2-3-3-3-3-3-2-2-2-3-3-3-3-3-2222-0000-5555-3333-------------------
-0-0-0-----------0-0-0---------------------3333-1111-------------------

Verse
-----------------------------------------------------------------------
----------------------------------------------------------------13-----
-7h9-9-9------------------0---------------7h9-9-9---------------15^----
-----------------------------------------------------------------------
-----------------------------------------------------------------------
-----------------------------------------------------------------------
                  ......anyone.....                        ..because...

-----------------------------------------------------------------------
-----------------------------------------------------------------0-----
-7h9-9-9------------------0---------------7h9-9-9----------------0-----
-----------------------------------------------------------------------
-----------------------------------------------------------------------
-----------------------------------------------------------------------
                 ......anyone......                    .....yes our...

Chorus
-----------------------------------------------------------------------
-----------------------------------------------------------------------
-----------------x-x---------------------------------------------------
-----------------x-x---x-----------------------------------------------
-----12-12-8-8-7-x-x---x--12-12-8-8-7-7--2-3-22-3-2-/10101010-888------
--0--10-10-6-6-5------10-10-6-6-5-5--0-1-00-1-0-/-8-8-8-8-666------

Bridge with various noises then this with a crescendo
--------------------------------
--------------------------------
-7h97h97h97h97h97h97h97h97h97h9-repeat few times
--------------------------------
--------------------------------
--------------------------------

Fill                       Ending
-------------------------|---------------------------------------------
-------------------------|---------------------------------------------
-------------------------|---------------------------------------------
-------------------------|-2222555522225555222255552222----22225555----
--2332-323--10101010888--|-2222333322223333222233332222555522223333----
--0110-101-/-8-8-8-8666--|-0000----0000----0000----000033330000--------

-----------------------------------------------------------------------
-----------------------------------------------------------------------
-----------------------------------------------------------------------
-2222555544442222------------------------------------------------------
-222233332222000055553333----------------------------------------------
-0000------------33331111----------------------------------------------

Intro  1x
verse  1x
chorus 4x
verse  1x
chorus 4x
bridge
intro  1x
fill   1x
chorus 4x
ending 1x
Добавлено: 20.08.2013
Другие материалы по этой песне:

Страница создана 09.04.2012
http://primanota.ru/incubus/out-from-under-chords.htm
Привет, Гость.
Предлагаем пройти революционный курс по гитаре.
Подарок от PrimaNota.Ru, забирай!