PrimaNota.ru - самый крупный в мире бесплатный архив песенных текстов, аккордов, табулатур и нот


Incubus - Priceless - аккорды и текст, таба, бас-таба, видео

Регистрация Запомнить меня
Войти через:  Facebook Google Twitter Vk Yandex Mail.ru

Incubus - Priceless - аккорды и текст, таба, бас-таба, видео

Печатать
Просмотров: 211
Авторы: Ben Kenney, Brandon Boyd, Mike Einziger, José Pasillas, Chris Kilmore

Priceless
Incubus
		   Priceless by Incubus from "A Crow Left of the Murder"
Tab by Steve

Tablature Explanation:

pm. = palm mute

tr. = trill

harm. = harmonics

cresc. = crescendo

s = slide

h = hammer-on

p = pull-off

/ = slide up

\ = slide down


Rhythm Explanation:
quarter notes   |       |
|       |       |       |
1 • + • 2 • + • 3 • + • 4 • + • 1 • + • 2 • + • 3 • + • 4 • + •
|   |   |   |   |   |   |   |   | | | | | | | | | | | | | | | |
eigth notes |   |   |   |   |   sixteenth notes | | | | | | | |

It appears that Mike has been practicing a bit since Morning View and has honed
his sweep picking skills to the next level. Check out the bridge and you'll see
what I mean... I hope I'm wrong and its way easier than this...


drum intro [4/4 time]
 1 + 2 + 3 + 4 + 1 + 2 + 3 + 4 + 1 + 2 + 3 + 4 + 1 + 2 + 3 + 4 +

|----------------------------------------------x-x---------------|
|----------------------------------------------x-x---------------|
|----------------------------------------------x-x---------------|
|----------------------------------------------------------------|
|------------------------------------------------------------x-x-|
|------------------------------------------------------------x-x-|


Intro (same as Chorus)
 1 + 2 + 3 + 4 + 1 + 2 + 3 + 4 + 1 + 2 + 3 + 4 + 1 + 2 + 3 + 4 +

|----------------------------------------------------------------|
|----------------------------------------------------------------|
|----------------------------------------------------------------|
|----4---------444---------7s5-------4---------444-------------5-|
|----3---------333-----3s4-----------3---------333-----3s4-6s7---|
|5p0-------5p0-----------------0-5p0-------5p0-------------------|


 1 + 2 + 3 + 4 + 1 + 2 + 3 + 4 + 1 + 2 + 3 + 4 + 1 + 2 + 3 + 4 +

|----------------------------------------------------------------|
|----------------------------------------------------------5-----|
|------------------------------------------------------2h3---3p2-|
|----4---------444---------7s5-------4---------444---------------|
|----3---------333-----3s4-----------3---------333---------------|
|5p0-------5p0-----------------0-5p0-------5p0-------------------|


add bass
 1 + 2 + 3 + 4 + 1 + 2 + 3 + 4 + 1 + 2 + 3 + 4 + 1 + 2 + 3 + 4 +

|----------------------------------------------------------------|
|----------------------------------------------------------------|
|----------------------------------------------------------------|
|----4---------444---------7s5-------4---------444-------------5-|
|----3---------333-----3s4-----------3---------333-----3s4-6s7---|
|5p0-------5p0-----------------0-5p0-------5p0-------------------|


 1 + 2 + 3 + 4 + 1 + 2 + 3 + 4 + 1 + 2 + 3 + 4 + 1 + 2 + 3 + 4 +

|----------------------------------------------------------------|
|----------------------------------------------------------5-----|
|------------------------------------------------------2h3---3p2-|
|----4---------444---------7s5-------4---------444---------------|
|----3---------333-----3s4-----------3---------333---------------|
|5p0-------5p0-----------------0-5p0-------5p0-------------------|


verse, add vocals
 1 + 2 + 3 + 4 + 1 + 2 + 3 + 4 +
                       pm–––––––|
|--------------------------------|
|--------------------------------|
|--------------------------------|
|----4---------444---------------|
|----3---------333---------------|
|5p0-------5p0---------3-4-5-4-3-| (8x)


Pre-Chorus [5/4 time]
 1 + 2 + 3 + 4 + 5 +

|--------------------|
|--------------------|
|5-----5---5-5---5---|
|4---4-4---4-4-xx4-xx|
|5---5-5---5-5-xx5-xx|
|--------------------| (8x)




Chorus [4/4 time]
(the look on your face was priceless...)
 1 + 2 + 3 + 4 + 1 + 2 + 3 + 4 + 1 + 2 + 3 + 4 + 1 + 2 + 3 + 4 +

|----------------------------------------------------------------|
|----------------------------------------------------------------|
|----------------------------------------------------------------|
|----4---------444---------7s5-------4---------444-------------5-|
|----3---------333-----3s4-----------3---------333-----3s4-6s7---|
|5p0-------5p0-----------------0-5p0-------5p0-------------------|


 1 + 2 + 3 + 4 + 1 + 2 + 3 + 4 + 1 + 2 + 3 + 4 + 1 + 2 + 3 + 4 +

|----------------------------------------------------------------|
|----------------------------------------------------------5-----|
|------------------------------------------------------2h3---3p2-|
|----4---------444---------7s5-------4---------444---------------|
|----3---------333-----3s4-----------3---------333---------------|
|5p0-------5p0-----------------0-5p0-------5p0-------------------|


Verse
 1 + 2 + 3 + 4 + 1 + 2 + 3 + 4 + 1 + 2 + 3 + 4 + 1 + 2 + 3 + 4 +
                       pm–––––––|                      pm–––––––|
|----------------------------------------------------------------|
|----------------------------------------------------------------|
|----------------------------------------------------------------|
|----4---------444-------------------4---------444---------------|
|----3---------333-------------------3---------333---------------|
|5p0-------5p0---------3-4-5-4-3-5p0-------5p0---------3-4-5-4-3-| (3x)


 1 + 2 + 3 + 4 + 1 + 2 + 3 + 4 + 1 + 2 + 3 + 4 + 1 + 2 + 3 + 4 +
                       pm–––––––|
|----------------------------------------------------------------|
|----------------------------------------------------------------|
|----------------------------------------------------------------|
|----4---------444-------------------4---------444444444444444444|
|----3---------333-------------------3---------333333333333333333|
|5p0-------5p0---------3-4-5-4-3-5p0-------5p0-------------------|


Pre-Chorus [5/4 time]
 1 + 2 + 3 + 4 + 5 +

|--------------------|
|--------------------|
|5-----5---5-5---5---|
|4---4-4---4-4-xx4-xx|
|5---5-5---5-5-xx5-xx|
|--------------------| (8x)


Chorus [4/4 time]
(the look on your face was priceless...)
 1 + 2 + 3 + 4 + 1 + 2 + 3 + 4 + 1 + 2 + 3 + 4 + 1 + 2 + 3 + 4 +

|----------------------------------------------------------------|
|----------------------------------------------------------------|
|----------------------------------------------------------------|
|----4---------444---------7s5-------4---------444-------------5-|
|----3---------333-----3s4-----------3---------333-----3s4-6s7---|
|5p0-------5p0-----------------0-5p0-------5p0-------------------|


 1 + 2 + 3 + 4 + 1 + 2 + 3 + 4 + 1 + 2 + 3 + 4 + 1 + 2 + 3 + 4 +

|----------------------------------------------------------------|
|----------------------------------------------------------5-----|
|------------------------------------------------------2h3---3p2-|
|----4---------444---------7s5-------4---------444---------------|
|----3---------333-----3s4-----------3---------333---------------|
|5p0-------5p0-----------------0-5p0-------5p0-------------------|


 1 + 2 + 3 + 4 + 1 + 2 + 3 + 4 + 1 + 2 + 3 + 4 + 1 + 2 + 3 + 4 +

|----------------------------------------------------------------|
|----------------------------------------------------------------|
|----------------------------------------------------------------|
|----4---------444-------------------4---------444---------------|
|----3---------333-------------------3---------333---------------|
|5p0-------5p0---------3-4-5-4-3-5p0-------5p0---------3-4-5-4-3-|


 1 + 2 + 3 + 4 + 1 + 2 + 3 + 4 + 1 + 2 + 3 + 4 + 1 + 2 + 3 + 4 +

|----------------------------------------------------------------|
|----------------------------------------------------------------|
|----------------------------------------------------------------|
|----4---------444-------------------4---------444444444444444444|
|----3---------333-------------------3---------333333333333333333|
|5p0-------5p0---------3-4-5-4-3-5p0-------5p0-------------------|


Bridge

4 measures rest

After the first hammer-on, you have to sweep up the next three notes
while palm muting. This sweeping part appears a bunch of times.

[rhythmic subdivisions are doubled to make this bit easier to read]
 1 • + • 2 • + • 3 • + • 4 • + • 1 • + • 2 • + • 3 • + • 4 • + •
 p.m.–––––––––––––––––|          p.m.–––––------------|  tr–––––|
|------------5---8-------------------------------5---------------|
|--------5-----------5--/10-\8-----------5---5-------5---7878787-|
|------5-------------------------------5-----------------5-------|
|----5-------------------------------5---------------------------|
|5h7-----------------------------5h7-----------------------------|
|----------------------------------------------------------------|


 1 • + • 2 • + • 3 • + • 4 • + • 1 • + • 2 • + • 3 • + • 4 • + •
 p.m.–––––––––––––––––|          p.m.–––––|  harm.––––|
|------------5---8-----------------------------------------------|
|--------5-----------5--/10-\8-----------5---------5-----4-------|
|------5-------------------------------5---------5---5---5-------|
|----5-------------------------------5---------5---------5-------|
|5h7-----------------------------5h7---------5-----------3-------|
|----------------------------------------------------------------|


 1 • + • 2 • + • 3 • + • 4 • + • 1 • + • 2 • + • 3 • + • 4 • + •
p.m.–––––––––––––––––|          p.m.–––––---------|
|------------5---8---------------------------5---x---------------|
|--------5-----------5--/10-\8-----------5-----------4-----------|
|------5-------------------------------5-------------5-----------|
|----5-------------------------------5---------------5-----------|
|5h7-----------------------------5h7-----------------3-----------|
|----------------------------------------------------------------|


 1 • + • 2 • + • 3 • + • 4 • + • 1 • + • 2 • + • 3 • + • 4 • + •
 p.m.–––––––––––––––––|          p.m.–––––|  harm.––––|
|------------5---8-----------------------------------------------|
|--------5-----------5--/10-\8-----------5---------5-----4-------|
|------5-------------------------------5---------5---5---5-------|
|----5-------------------------------5---------5---------5-------|
|5h7-----------------------------5h7---------5-----------3-------|
|----------------------------------------------------------------|


 1 • + • 2 • + • 3 • + • 4 • + • 1 • + • 2 • + • 3 • + • 4 • + •

|------------5---8-------------------------------5---------------|
|--------5-----------5--/10-\8-----------5---5-------5---7h8p7p6-|
|------5-------------------------------5-----------------5-------|
|----5-------------------------------5---------------------------|
|5h7-----------------------------5h7-----------------------------|
|----------------------------------------------------------------|


 1 • + • 2 • + • 3 • + • 4 • + • 1 • + • 2 • + • 3 • + • 4 • + •
                                             harm.––––|
|------------5---8-----------------------------------------------|
|--------------------5--/10-\8---------------------5-----4-------|
|------5h9-----------------------------5h9-------5---5---5-------|
|----7-------------------------------7---------5---------5-------|
|5h9-----------------------------5h9---------5-----------0-------|
|----------------------------------------------------------------|


 1 • + • 2 • + • 3 • + • 4 • + • 1 • + • 2 • + • 3 • + • 4 • + •
p.m.–––––––––––––––––|          p.m.–––––---------|
|------------5---8---------------------------5---x---------------|
|--------5-----------5--/10-\8-----------5-----------4-----------|
|------5-------------------------------5-------------5-----------|
|----5-------------------------------5---------------5-----------|
|5h7-----------------------------5h7-----------------3-----------|
|----------------------------------------------------------------|


 1 • + • 2 • + • 3 • + • 4 • + • 1 • + • 2 • + • 3 • + • 4 • + •
                                              into solo......
|------------5---8-----------------------------------------------|
|--------5-----------5--s10-s8---8-8-8-8-8-8-8-8-8-8-8-8-8-8-8---|
|------5---------------------------------------------------------|
|----5-----------------------------------------------------------|
|5h7-------------------------------------------------------------|
|----------------------------------------------------------------|


Guitar Solo (sorry, no rhythm markings here, maybe in an update)

|12------------14----12-14h15-----14-14s12-12-12---10-10h12------|
|-----------------------------------------------------------10---|
|----------------------------------------------------------------|
|----------------------------------------------------------------|
|----------------------------------------------------------------|
|----------------------------------------------------------------|


|-------------------10--10-10-10s8-8-8-8s7-7-7-7s5-5-5-5s3-3-3---|
|10-10p8p7--8p7-8p7----------------------------------------------|
|----------------------------------------------------------------|
|----------------------------------------------------------------|
|----------------------------------------------------------------|
|----------------------------------------------------------------|


|3s5-5---10-8------10-8-10-8------10-8-10-8------10-8------------|
|-------------10-8-----------10-8-----------10-8------10-8-------|
|----------------------------------------------------------------|
|----------------------------------------------------------------|
|----------------------------------------------------------------|
|----------------------------------------------------------------|


|10-8-10-8------10-8-10-8------12-8------10-8-10-8------12-8-12-8|
|----------10-8-----------10-8------10-8-----------10-8----------|
|----------------------------------------------------------------|
|----------------------------------------------------------------|
|----------------------------------------------------------------|
|----------------------------------------------------------------|


|-----10-8------12-8-12-8----------------10-8--------------------|
|10-8------10-8-----------10-8-10-8-10--------10-9-8-------------|
|----------------------------------------------------9-8---------|
|----------------------------------------------------------------|
|----------------------------------------------------------------|
|----------------------------------------------------------------|


|10-8--------------11-10-9-8-------------------------------------|
|-----10-8-------------------12-11-10-9--------------------------|
|----------9-8--------------------------12-11-10-9---------------|
|--------------10----------------------------------13-12-11-10---|
|----------------------------------------------------------------|
|----------------------------------------------------------------|


|----------------------------------------------------------------|
|----------------------------------------------------------------|
|----------------------------------------------------------------|
|----------------------------------------------------------------|
|10-9-8-7-6-/\---------------------------------------------------|
|----------------------------------------------------------------|


Bridge Outro

I havent got the Bridge Outro worked out yet, maybe sometime soon.  If you have
and questions or comments, email me: SLAANEESH@aol.com     
Добавлено: 04.11.2013
Другие материалы по этой песне:

Страница создана 29.02.2012
http://primanota.ru/incubus/priceless-chords.htm
Привет, Гость.
Предлагаем пройти революционный курс по гитаре.
Подарок от PrimaNota.Ru, забирай!