PrimaNota.ru - самый крупный в мире бесплатный архив песенных текстов, аккордов, табулатур и нот


Incubus - Privilege - аккорды и текст, таба, бас-таба, видео

Регистрация Запомнить меня
Войти через:  Facebook Google Twitter Vk Yandex Mail.ru

Incubus - Privilege - аккорды и текст, таба, бас-таба, видео

Печатать
Просмотров: 297
Авторы музыки: Brandon Boyd, Mike Einziger, José Pasillas, Alex Katunich, Chris Kilmore

Privilege
Incubus
		   Band: Incubus
Song: Privilege
Album: Make Yourself
tabbed by: Reinaldo Gonzalez
Effects: Distortion, Delay

Standard Tuning

Intro:(Ligth distortion)
E----------------------------------------|
B----------------------------------777---|
G--------6-6---------------6-6-----XXX---|
D----7/5-6-6-777-55/4/5-77-6-6-777-444---|
A----7/5-4-4-777-55/4/5-77-4-4-777-------|
E----5/3-4-4-555-33/2/3-55-4-4-555-------|

And them!
E----------------------------------------|
B----------------------------------------|
G--------6-6---------------6-6-----------|
D----7/5-6-6-777-55/4/5-77-6-6-777-XX----|
A----7/5-4-4-777-55/4/5-77-4-4-777-XX----|
E----5/3-4-4-555-33/2/3-55-4-4-555-XX----|

Post-Intro:(Full distortion)
E----------------------------------------|
B----------------------------------777---|
G--------6-6---------------6-6-----XXX---|
D----7/5-6-6-777-55/4/5-77-6-6-777-444---|
A----7/5-4-4-777-55/4/5-77-4-4-777-------|
E----5/3-4-4-555-33/2/3-55-4-4-555-------|

And them!
E----------------------------------------|
B----------------------------------------|
G--------6-6---------------6-6-----------|
D----7/5-6-6-777-55/4/5-77-6-6-777-XX----|
A----7/5-4-4-777-55/4/5-77-4-4-777-XX----| X2
E----5/3-4-4-555-33/2/3-55-4-4-555-XX----|

Verse 1:(full distortion)
E---------------------------|
B---------------------------|
G---------------------------|
D---------------------------|
A---------------------------| X4
E--5-5-3-5-5-3-5-5-3-5/6-5--|

Pre-Chorus:(Delay+distortion)
E----4-----|
B----X-----|
G----2-----|
D----3-----|
A----------| X7
E----------|

Chorus 1:(distortion)
E-----------------------------------|
B-----------------------------------|
G--------6-6------------------6-6---|
D----7/5-6-6-777-55-44-55-777-6-6---|
A----7/5-4-4-777-55-44-55-777-4-4---|
E----5/3-4-4-555-33-22-33-555-4-4---|

And them!
E-----------------------------------|
B-----------------------------------|
G--------6-6------------------------|
D----7/5-6-6-777-33-0-33-0-33-------|
A----7/5-4-4-777-33-0-33-0-33-------| X2
E----5/3-4-4-555-11-0-11-0-11-------|

Pre-Verse:(Ligth distortion)
E----------------------------------------|
B----------------------------------777---|
G--------6-6---------------6-6-----XXX---|
D----7/5-6-6-777-55/4/5-77-6-6-777-444---|
A----7/5-4-4-777-55/4/5-77-4-4-777-------|
E----5/3-4-4-555-33/2/3-55-4-4-555-------|

And them!
E----------------------------------------|
B----------------------------------------|
G--------6-6---------------6-6-----------|
D----7/5-6-6-777-55/4/5-77-6-6-777-XX----|
A----7/5-4-4-777-55/4/5-77-4-4-777-XX----| X2
E----5/3-4-4-555-33/2/3-55-4-4-555-XX----|

Verse 2:(full distortion)
E---------------------------|
B---------------------------|
G---------------------------|
D---------------------------|
A---------------------------| X4
E--5-5-3-5-5-3-5-5-3-5/6-5--|

Pre-Chorus:(Delay+distortion)
E----4-----|
B----X-----|
G----2-----|
D----3-----|
A----------| X7
E----------|

Chorus 2:(distortion)
E-----------------------------------|
B-----------------------------------|
G--------6-6------------------6-6---|
D----7/5-6-6-777-55-44-55-777-6-6---|
A----7/5-4-4-777-55-44-55-777-4-4---|
E----5/3-4-4-555-33-22-33-555-4-4---|

And them!
E-----------------------------------|
B-----------------------------------|
G--------6-6------------------------|
D----7/5-6-6-777-33-0-33-0-33-------|
A----7/5-4-4-777-33-0-33-0-33-------| X2
E----5/3-4-4-555-11-0-11-0-11-------|

Bass and DJ Bridge......

Pre-Outro:(Delay+distortion)
E----4-----|
B----X-----|
G----2-----|
D----3-----|
A----------| X7
E----------|

Outro:(Distortion)
E-----------------------------------|
B-----------------------------------|
G--------6-6------------------6-6---|
D----7/5-6-6-777-55-44-55-777-6-6---|
A----7/5-4-4-777-55-44-55-777-4-4---|
E----5/3-4-4-555-33-22-33-555-4-4---|

And them!
E-----------------------------------|
B-----------------------------------|
G--------6-6------------------------|
D----7/5-6-6-777-33-0-33-0-33///----|
A----7/5-4-4-777-33-0-33-0-33///----| X2
E----5/3-4-4-555-11-0-11-0-11///----|     
Добавлено: 11.09.2013
Другие материалы по этой песне:

Страница создана 28.02.2012
http://primanota.ru/incubus/privilege-chords.htm
Привет, Гость.
Предлагаем пройти революционный курс по гитаре.
Подарок от PrimaNota.Ru, забирай!