PrimaNota.ru - самый крупный в мире бесплатный архив песенных текстов, аккордов, табулатур и нот


Immortal - Blizzard Beasts - аккорды и текст, таба, видео

Регистрация Запомнить меня
Войти через:  Facebook Google Twitter Vk Yandex Mail.ru

Immortal - Blizzard Beasts - аккорды и текст, таба, видео

Печатать
Просмотров: 171
Авторы музыки: Demonaz Doom Occulta, Abbath Doom Occulta
Авторы текста: Demonaz Doom Occulta
Blizzard Beasts
Immortal
		   Blizzard beasts

Transcribed by Bobo Sinner Nickolov (immortality_zine@yahoo.com)

Normal tuning (EADGBe)

Riff 1
e|----------------------------------------------------------------|
B|----------------------------------------------------------------|
G|----------------------------------------------------------------|
D|--------------4-----------4-6-4---------------4-----------4-6-4-|
A|-----4-3------2------4-3--2-4-2------4-3------2-----------2-4-2-|
E|-2-2-2-1--2-2----2-2-2-1---------2-2-2-1--2-2----2-2-2-1--------|

Riff 2
e|-------------------------------------------------------|
B|-------------------------------------------------------|
G|-------------------------------------------------------|
D|-----6-----7--------------4------6-----7---------4-6-4-|
A|-----4-----5-----4-3------2------4-----5-----4-3-2-4-2-|
E|-2-2---2-2---2-2-2-1--2-2----2-2---2-2---2-2-2-1-------|

Riff 3
e|---------------------|
B|---------------------|
G|---------------------|
D|-----8-7-----8-7-5-7-|
A|-----6-5-----6-5-3-5-|
E|-0-0-----0-0---------|

Riff 4
e|------------------------------------------------|
B|------------------------------------------------|
G|------------------------------------------------|
D|-9---------9----------8--9---------9------------|
A|-7---9-10--7---9-10-9-6--7---9-10--7---9-10-9-7-|
E|---0---------0-------------0---------0----------|

Riff 5
e|-------------------------|
B|-------------------------|
G|-------------------------|
D|-5-----6-----5-----6-5-3-|
A|-3-----4-----3-----4-3-1-|
E|---000---000---000-------|

Riff 6
e|-------------------------------------------------------------------------|
B|-------------------------------------------------------------------------|
G|-------------------------------------------------------------------------|
D|-------------------------------------------------------------------------|
A|----7-7-7----7-7-7----6-6-6----6-6-6----7-7-7----7-7-7----8-8-8----8-8-8-|
E|-00-------00-------00-------00-------00-------00-------00-------00-------|

e|-------------------------------------------------------------------------|
B|-------------------------------------------------------------------------|
G|-------------------------------------------------------------------------|
D|-------------------------------------------------------------------------|
A|----4-4-4----4-4-4----3-3-3----3-3-3----4-4-4----4-4-4----3-3-3----3-3-3-|
E|-00-------00-------00-------00-------00-------00-------00-------00-------|     
Добавлено: 05.08.2013
Другие материалы по этой песне:
  • Аккорды и текст

Страница создана 27.03.2012
http://primanota.ru/immortal/blizzard-beasts-chords.htm
Привет, Гость.
Предлагаем пройти революционный курс по гитаре.
Подарок от PrimaNota.Ru, забирай!