PrimaNota.ru - самый крупный в мире бесплатный архив песенных текстов, аккордов, табулатур и нот


Homestuck - Spider8reath - таба, видео

Регистрация Запомнить меня
Войти через:  Facebook Google Twitter Vk Yandex Mail.ru

Homestuck - Spider8reath - таба, видео

Печатать
Просмотров: 74
Artist: Homestuck
Song: Spider8reath
Album: At The Price of Oblivion - Vol. 7
Tabbed by: gustavoaraujo999@hotmail.com

**Used Tensei's MIDI file from the "MSPA Forum's Sheet Music Thread"
**I think the C part of the verse is wrong but i have no idea how to fix it.

**Edit 18/07/2015 - Minor corrections on 1:00


0:00 - intro
e|-------------------------------------------------------------|
B|----------------------------------3--------------------------|
G|--------------------------3---3-5----------------------------|
D|------------------3---3-5---5--------------------------------|
A|--------------3-5---5----------------------------------------|
D|--15\\5---3/5------------------------------------------------|

e|-------------------------------------------------------------|
B|-6p3-6p3-5p3--6p3-6p3-6p3-5p3--6p3-6p3-5p3--6p3-6p3-6p3-5p3--|
G|-------------------------------------------------------------|
D|-------------------------------------mess with the whammy----|
A|-------------------------------------------------------------|
D|-------------------------------------------------------------|

e|--------------------------------------------------------------|
B|---------+--------------3-------------------------------------|
G|-5/7-5-3-5b7-5-3--------3-------------------------------------|
D|-----------------5-3-5--5------------------------5---------5--|
A|-------------------------------------------------5---------5--|
D|-------------------------------\\12-\\10-\\8-\\7-5---------5--|


0:22 - main riff
e|------|----------------------------------------------|
B|------|----------------------------------------------|
G|------|----------------------------------------------|
D|------|----------------------------------------3-----|
A|------|----5----4----3------------5----4---345---543-|
D|-0345-|-55---55---55-----4305--55---55---------------|

e|-----------------------------------------------------|
B|-----------------------------------------------------|
G|-----------------------------------------------------|
D|-------------------------------------------8--10-----|
A|-----------5----4----3------------5----4---8--10-----|
D|----5---55---55---55-----4305--55---55-----8--10-----|


0:35 - verse
e|-----------------------------------------------------|
B|-----------------------------------------------------|
G|-----------------------------------------------------|
D|-----------------------------------------------3-----|
A|-----------5----4----3------------5----4---345---543-|
D|--------55---55---55-----4305--55---55---------------|

e|-----------------------------------------------------|
B|-----------------------------------------------------|
G|-----------------------------------------------------|
D|-----------------------------------------------3-----|
A|-----------5----4----3------------5----4---345---5433|
D|----5---55---55---55-----4305--55---55---------------|

e|-------------------------------|-------------------------------|
B|-------------------------------|-------------------------------|
G|-------------------------------|-------------------------------|
D|------5----4----0-3-0-2-0-2h3--|------5----4----0-3-0-2-0-2h3--|
A|-3-33---33---3-----------------|-3-33---33---3-----------------|
D|-------------------------------|-------------------------------|

e|-----------------------------------------------------|
B|-----------------------------------------------------|
G|-----------------------------------------------------|
D|-----------------------------------------------3-----|
A|-----------5----4----3------------5----4---345---543-|
D|----5---55---55---55-----4305--55---55---------------|

e|-----------------------------|-------------------------------|
B|-----------------------------|-------------------------------|
G|-----------------------------|-------------------------------|
D|------7----6----5-3----------|------5----4----0-3-0-1-0-1h3--|
A|-5-55---55---55-----543------|-3-33---33---3-----------------|
D|-----------------------------|-------------------------------|

e|-----------------------------------------------------|
B|-----------------------------------------------------|
G|-----------------------------------------------------|
D|-----------------------------------------------3-----|
A|-----------5----4----3------------5----4---345---543-|
D|--------55---55---55-----4305--55---55---------------|

e|-----------------------------------------------------|
B|-------------------------------------------6---------|
G|-------------------------------------------7---------|
D|-------------------------------------------5---------|
A|-----------5----4----3------------5----4-------------|
D|----5---55---55---55-----4305--55---55---------------|



1:00 - solo
e|-------------------------------------------------------------|
B|-------------------------------------------------------------|
G|-------------------------------------------------------------|
D|----------8----8-10b12-10b12-10-8----------------------------|
A|-------10---10--------------------10-8-10--------------------|
D|-------------------------------------------------------------|

e|-------------------------------------------------------------|
B|-------------------------------------------------------------|
G|------------10-9---------------------------------------------|
D|----------8------12-10-12--10-8-10-10--10-8----8---10--------|
A|-------10-----------------------------------10---------10----|
D|-------------------------------------------------------------|

e|-------------------------------------------------------------|
B|-------------------------------------------------------------|
G|-------------------14b16br14-14-12---------------------------|
D|----------10----13-----------------15-14-12------------------|
A|--13-13------13-----------------------------13---------------|
D|-------------------------------------------------------------|

e|----------------------------------------------------------------------------------|
B|----------------------------------------------------------------------------------|
G|-------14-12------------------------15-17b19--17-15-17-15-----17b19---15-14-17b19-|
D|----12---------15-14-15----------15-----------------------17----------------------|
A|-13------------------------17-15--------------------------------------------------|
D|----------------------------------------------------------------------------------|


1:29
e|-------------------------------------------------------------------|
B|----------------11-----------11-13b15--11-10-11-10----11-10--------|
G|--/12--12-10-12----12--10-12-----------------------10-------10-12--|
D|-------------------------------------------------------------------|
A|-------------------------------------------------------------------|
E|-------------------------------------------------------------------|

e|---------------------------------------------------------------15--------|
B|----------------11-----------11-13--11-10-11-10-------11-13-15-----------|
G|--/12--12-10-12----12-----12--------------------10-12--------------------|
D|-------------------------------------------------------------------------|
A|-------------------------------------------------------------------------|
E|-------------------------------------------------------------------------|


1:50 - bridge
e|-------------------|--------------------|
B|-6/8-88------------|-6/8-88-------------|
G|-5/7-77--7-----3h5-|-5/7-77--7---5-3----|
D|-3/5-55--5-3h5-----|-3/5-55--5-------5--|
A|-------------------|--------------------|
D|-------------------|--------------------|

e|-------------------|--------------------|
B|-6/8-88------------|-6/8-88------4--6---|
G|-5/7-77--7-----3h5-|-5/7-77--7---5--7---|
D|-3/5-55--5-3h5-----|-3/5-55--5----------|
A|-------------------|--------------------|
D|-------------------|--------------------|


2:00 - bridge 2 aka vriskas theme
e|-------------------------------------------------------------|
B|-------------------------------------------------------------|
G|-------------------------------------------------------------|
D|----8-------------8------------------11---10---8-------------|
A|-10---10-8---8-10---8-10--8-8-8-10-8----8----8---------------|
D|-------------------------------------------------------------|

e|-----------------------------------------------------------|
B|-----------------------------------------------------------|
G|-----------------10----------------------------------------|
D|-12-12--12-10-12-----12-10-12-10-8--8-10-8-----------------|
A|-------------------------------------------10--8-9-10------|
D|-----------------------------------------------------------|
D|-----------------------------------------------------------|


2:08 - sax solo
e|-----------------------------------------------------|
B|-----------------------------------------------------|
G|-----------------------------------------------------|
D|-----------------------------------------------3-----|
A|-----------5----4----3------------5----4---345---543-|
D|--------55---55---55-----4305--55---55---------------|

e|-----------------------------------------------------|
B|-----------------------------------------------------|
G|-----------------------------------------------------|
D|-----------------------------------------------3-----|
A|-----------5----4----3------------5----4---345---5433|
D|----5---55---55---55-----4305--55---55---------------|

e|-------------------------------|-------------------------------|
B|-------------------------------|-------------------------------|
G|-------------------------------|-------------------------------|
D|------5----4----0-3-0-2-0-2h3--|------5----4----0-3-0-2-0-2h3--|
A|-3-33---33---3-----------------|-3-33---33---3-----------------|
D|-------------------------------|-------------------------------|

e|-----------------------------------------------------|
B|-----------------------------------------------------|
G|-----------------------------------------------------|
D|-----------------------------------------------3-----|
A|-----------5----4----3------------5----4---345---543-|
D|----5---55---55---55-----4305--55---55---------------|

e|-----------------------------|-------------------------------|
B|-----------------------------|-------------------------------|
G|-----------------------------|-------------------------------|
D|------7----6----5-3----------|------5----4----0-3-0-1-0-1h3--|
A|-5-55---55---55-----543------|-3-33---33---3-----------------|
D|-----------------------------|-------------------------------|

e|-----------------------------------------------------|
B|-----------------------------------------------------|
G|-----------------------------------------------------|
D|-----------------------------------------------3-----|
A|-----------5----4----3------------5----4---345---543-|
D|--------55---55---55-----4305--55---55---------------|

e|---|----------------------------------------------------------|
B|-6-|----------------------------------------------------------|
G|-5-|----------------------------------------------------------|
D|-4-|----------------------------------------------------------|
A|-5-|----------------------------------------------------------|
D|---|----------------------------------------------------------|



Добавлено: 28.11.2015
Другие материалы по этой песне:
  • Аккорды и текст

Страница создана 28.11.2015
http://primanota.ru/homestuck/spider8reath-chords.htm
Привет, Гость.
Предлагаем пройти революционный курс по гитаре.
Подарок от PrimaNota.Ru, забирай!